Guitar Tabs, Chords and Lyrics
Major upgrade!! After one year development the new version of Chordie is now online! Please give feedback.


I and I  Bayside

I and I (Acoustic)
i heard this acoustic on youtuve and know body had tabbed it yet so i decided to, its
anthony's part
Intro (pm ever other stroke)
 
 e-----------------------------------|
 b--x---2----------------------------|
 g--x---2----------------------------|x2
 d--x-------3--x--2------------------|
 a--x-------3--x--2------------------|
 e----------1--x---------------------|

Verse
I've got a s[Am]tage and a mic
Which I [Dm]use to say things y[C]ou won't like
But I s[Am]pent years thinking I was alon[Dm]e (Thi[C]nking I was alone)
Now I k[Am]now,that I'm not,and I'm sha[Dm]ring that co[C]mfort with t[Am]hose
Who think that hope is los[Dm]t[C]
Pre Chorus
(Oh and im so proud of wear i am...)
[C] [Am] [D] [F]  
 
 e-------------0----1--------------|
 b---1----1----3----1--------------|
 g---x----2----2----2--------------|
 d---2----2---------3--------------|
 a---3-----------------------------|
 e---------------------------------|

Chorus
 
 e-----------------------------------|
 b-----------------------------------|
 g---5-------------7------10---------|
 d---5-x4---7-x4---7-x4---10-x4------|x2
 a---3------7------5------8----------|
 e----------5------------------------|

Bridge
(same as chorus)
Last Chorus
 
 e-----------------------------------|
 b-----------------------------------|
 g---5-------------7------10---------|
 d---5-x4---7-x4---7-x4---10-x4------|x1
 a---3------7------5------8----------|
 e----------5------------------------|
 e---------------------------------------|
 b---------------------------------------|
 g---5-------------7------10-----17------|
 d---5-x4---7-x4---7-x4---10-x8---x-x8---|x1
 a---3------7------5------8------15------|
 e----------5----------------------------|

End on
[C]  
 
 e----------|
 b---1------|
 g---x------|
 d---2------|
 a---3------|
 e----------|


Important: The song above is NOT stored on the Chordie server. The original song is hosted at www.guitartabs.cc. Chordie works as a search engine and provides on-the-fly formatting. Chordie does not index songs against artists'/composers' will. To remove this song please click here.

Text color:
Chord color:
Chord grids: 
Font size:    
Page size: 

Am C D Dm F
Rate #1 of 2 versions

Jango Player

Login - add to songbook

SHARE PAGE  




You need to log in to post comments