Guitar Tabs, Chords and Lyrics
Server problems seems to be fixed. Chordie has been experiencing problems with songs disappearing. These issues now seems to be fixed, but still verifying the fix. If you find anything strange, please email admin@chordie.com.


And I Love Her  The Beatles

[INTRO] 
[F#m] [F#m] [E] [E]  
 
 G:--------|--------|--------|--------|--------|
 D:--------|4--44---|4--44---|2--22---|2--22---|
 A:--------|--------|--------|--------|--------|
 E:--------|--------|--------|--------|--------|

[VERSE] 
[F#m] I give her [C#m]all my love [F#m] That's all I [C#m]do
[F#m] And if you [C#m]saw my love [A] You'd love her, [B7]too I [E]love her[E]
||
[F#m] [C#m] [F#m] [C#m] [F#m] [C#m] [A] [B7] [E]  
 
 G:--------|--------|--------|--------|--------|--------|--------|--------|---4----|
 D:4--44---|--------|4--44---|--------|4--44---|--------|------2-|---1--4-|2-------|
 A:--------|4--44---|--------|4--44---|--------|4--44---|0--4----|2-------|------2-|
 E:--------|--------|--------|--------|--------|--------|--------|--------|--------|

[VERSE] 
[F#m] She gives me [C#m]everything [F#m] And tender[C#m]ly
[F#m] The kiss my [C#m]lover brings [A] She brings to [B7]me And I [E]love her[E]
||
[F#m] [C#m] [F#m] [C#m] [F#m] [C#m] [A] [B7] [E]  
 
 G:--------|--------|--------|--------|--------|--------|--------|--------|---4----|
 D:4--44---|--------|4--44---|--------|4--44---|--------|------2-|---1--4-|2-------|
 A:--------|4--44---|--------|4--44---|--------|4--44---|0--4----|2-------|------2-|
 E:--------|--------|--------|--------|--------|--------|--------|--------|--------|

[BRIDGE] 
[C#m] A love like [B]ours [C#m] Could never [Abm]die
[C#m] As long as [Abm]I Have you [B7]near me
[C#m] [B] [C#m] [Abm] [C#m] [Abm] [B7] [B7]  
 
 G:--------|--------|--------|--------|--------|--------|--------|--------|
 D:--------|--------|--------|--------|--------|--------|--------|--------|
 A:4--44---|2--22---|4--44---|--------|4--44---|--------|2--22---|2--22---|
 E:--------|--------|--------|4--44---|--------|4--44---|--------|--------|

[ Tab from: bttp://www.guitartabs.cc/tabs/b/beatles/and_i_love_ber_btab_ver_4.btml ] 
[VERSE] 
[F#m] Bright are the [C#m]stars that shine [F#m] Dark is the [C#m]sky
[F#m] I know this [C#m]love of mine [A] Will never [B7]die And I [E]love her[E]
||
[F#m] [C#m] [F#m] [C#m] [F#m] [C#m] [A] [B7] [E]  
 
 G:--------|--------|--------|--------|--------|--------|--------|--------|---4----|
 D:4--44---|--------|4--44---|--------|4--44---|--------|------2-|---1--4-|2-------|
 A:--------|4--44---|--------|4--44---|--------|4--44---|0--4----|2-------|------2-|
 E:--------|--------|--------|--------|--------|--------|--------|--------|--------|

[INSTRUMENTAL] 
||
[Gm] [Dm] [Gm] [Dm] [Gm] [Dm] [Bb] [C7] [F]  
 
 G:--------|--------|--------|--------|--------|--------|--------|--------|---5----|
 D:--------|0--00---|--------|0--00---|--------|0--00---|--------|--------|3-------|
 A:--------|--------|--------|--------|--------|--------|1--11---|3--33---|------3-|
 E:3--33---|--------|3--33---|--------|3--33---|--------|--------|--------|--------|

[VERSE] 
[F#m] Bright are the [C#m]stars that shine [F#m] Dark is the [C#m]sky
[F#m] I know this [C#m]love of mine [A] Will never [B7]die And I [E]love her[E]
||
[F#m] [C#m] [F#m] [C#m] [F#m] [C#m] [A] [B7] [E]  
 
 G:--------|--------|--------|--------|--------|--------|--------|--------|---4----|
 D:4--44---|--------|4--44---|--------|4--44---|--------|------2-|---1--4-|2-------|
 A:--------|4--44---|--------|4--44---|--------|4--44---|0--4----|2-------|------2-|
 E:--------|--------|--------|--------|--------|--------|--------|--------|--------|

[CODA] 
F#m F#m E E F#m F#m D (let ring)
 
 G:--------|--------|--------|--------|--------|--------|--------|--------|
 D:4--44---|4--44---|2--22---|2--22---|4--44---|4--44---|0~~~~~~~~~~~~~~~~|
 A:--------|--------|--------|--------|--------|--------|--------|--------|
 E:--------|--------|--------|--------|--------|--------|--------|--------|

Tabbed by Michael Oxner
moxner@nbnet.nb.ca
August 11, 2011

Important: The song above is NOT stored on the Chordie server. The original song is hosted at www.guitartabs.cc. Chordie works as a search engine and provides on-the-fly formatting. Chordie does not index songs against artists'/composers' will. To remove this song please click here.

Text color:
Chord color:
Chord grids: 
Font size:    
Page size: 

A Abm B B7 Bb C#m C7 Dm E F F#m Gm
Rate #1 of 34 versions

Login - add to songbook

SHARE PAGE  




You need to log in to post comments