Guitar Tabs, Chords and Lyrics
Major upgrade!! After one year development the new version of Chordie is now online! Please give feedback.


Any Time at All  The Beatles

( Tab from: http://www.guitartabs.cc/tabs/b/beatles/any_time_at_all_crd_ver_3.html )
Chorus: (This is Figure 1)
Any time at
[Bm]all [D] Any time at
 
 E|---------------------------------|---------2----------------------|
 B|---------------------------------|---------3----------------------|
 G|---------------------------------|---------2----------------------|
 D|-----------------------------0---|---------0----------------------|
 A|-2-------------------0---2-------|--------------------------------|
 E|---------------------------------|--------------------------------|

^ ^ ^ ^ ^ ^ ^ ^
a[A]ll Any time at
 
 E|---------------------------------|--------------------------------|
 B|---------2-------3---2-------2---|--------------------------------|
 G|---------2-------2---2-------2---|--------------------------------|
 D|---------2-------2---2-------2---|---------------------2---3---4--|
 A|-0-----------0---------------0---|--------------------------------|
 E|---------------------------------|--------------------------------|

^ ^ ^ ^ ^ ^ ^ ^
[Bm]all All you've got to do is [G]call And I[A7]'ll be there Any time at
 
 E|---------------------------------|--------------------------------|
 B|---------------------------------|--------------------------------|
 G|---------------------------------|--------------------------------|
 D|---------------------------------|--------------------------------|
 A|---------------------------------|--------------------------------|
 E|---------------------------------|--------------------------------|

^ ^ ^ ^ ^ ^ ^ ^
(Fill 1)
[D]  
 
 E|-3-------2-------------------2---|--------------------------------|
 B|-----------------5---3-----------|--------------------------------|
 G|---------------------------------|--------------------------------|
 D|---------------------------------|--------------------------------|
 A|---------------------------------|--------------------------------|
 E|---------------------------------|--------------------------------|

^ ^ ^ ^ ^ ^ ^ ^
Verse 1:
[D] If you need some[F#m]body to love [Bm] Just look into my eyes[Gm/Bb]
[D/A]I'll be there to m[A]ake you feel right [D] if you're feeling s[F#m]orry and sad
[Bm] I'd really sympathize [Gm/Bb] D[D/A]on't you be sad Just c[A]all me tonight
D (Fill 1)
Any time at
Chorus:(With Figure 1)
[Bm]all [D] Any time at a[A]ll Any time at
[Bm]all All you've got to do is c[G]all And I[A7]'ll be there[D]
Verse 2:
[D] If the sun has f[F#m]aded away I[Bm]'ll try to make it shine[Gm/Bb]
[D/A]There is nothing I [A] won't do [D] if you need a s[F#m]houlder to cry on
[Bm] I hope it will be mine [Gm/Bb] [D/A]Call me tonight And I[A]'ll come to you
D (Fill 1)
Any time at
Chorus:(With Figure 1)
[Bm]all [D] Any time at a[A]ll Any time at
[Bm]all All you've got to do is c[G]all And I[A7]'ll be there[D]
Piano Solo:
[A7] [Bm7/A] [A7] [A7] [Bm7/A] [A7] 
[G] [A7] [G] [A7] 
[D] Any time at
Chorus:(With Figure 1)
[Bm]all [D] Any time at a[A]ll Any time at
[Bm]all All you've got to do is c[G]all And I[A7]'ll be there
[D] Any time at
Coda:
G A D (Fill 1)
all All you've got to do is call And I'll be there

Important: The song above is NOT stored on the Chordie server. The original song is hosted at www.guitartabs.cc. Chordie works as a search engine and provides on-the-fly formatting. Chordie does not index songs against artists'/composers' will. To remove this song please click here.

Text color:
Chord color:
Chord grids: 
Font size:    
Page size: 

A A7 Bm Bm7/A D F#m G Gm/Bb
Rate #2 of 18 versions

Login - add to songbook

SHARE PAGE  




You need to log in to post comments