Guitar Tabs, Chords and Lyrics
Update 25:10. 13:00. Site is back up running again. Songbooks are recovered. Woring on getting search back up..


Honey Don’t  The Beatles

 
 ---------------------------------------------------------

THE BEATLES - HONEY DON'T (Perkins) From BEATLES FOR SALE
album. Released on December 4th 1964.
 
 ---------------------------------------------------------

Tabbed by:PJVillanueva
Well how come you say you will when you won't,
Say you do, baby, when you don't?
Let me know, honey, how you feel,
Tell the truth now, is love real?
But uh huh well honey don't, well honey don't,
Honey don't, honey don't, honey don't
I say you will when you won't, uh huh honey, don't.
Well I love you, baby, and you ought to know
I like the way that you wear your clothes,
Everything about you is so doggone sweet,
You got that sand all over your feet.
But uh huh well honey don't, honey don't,
Honey don't, honey don't, honey don't
I say you will when you won't, uh huh honey, don't.
Oh, rock on George, one time for me
I feel fine
Mmmmmmmmmmm hmm
I'm sad
Well sometimes I love you on a Saturday night,
Sunday morning you don't look right.
You've been out painting the town,
Uh huh baby, been stepping around.
But uh huh well honey don't, I said honey don't,
Honey don't, honey don't, honey don't
I say you will when you won't, uh huh honey, don't.
Oh, rock on George, for Ringo one time
Well honey donít, well honey donít,
A little little honey don't,
I say you will when you won't, uh huh honey, don't.
12/8
 
 e|------ ------ ------ ------|------ 0----- ----0- ------|
 B|---------------------------|0------0---0------0--0-----|
 G|---------------------------/4---------/4--------/4-----|
 D|---------------------------|---------------------------|
 A|---------------------------|---------------------------|
 E|---------------------------|---------------------------|

[E]  
 
 e|------ ------ ------ ------|------ ------ ------ ----0-|
 B|---------------------------|-------------------------0-|
 G|---------------------------|-------------------------1-|
 D|---------------------------|-------------------------2-|
 A|---------------------------|-------------------------2-|
 E|---------------------------|-------------------------0-|
 e|------ 0----- ---0-- ------|------ 0----- ----0- ------|
 B|0------0---0-----0---0-----|0------0---0------0--0-----|
 G|3----------3-----3---3-----|2----------2---------2P0---|
 D|---------------------------|---------------------------|
 A|---------------------------|---------------------------|
 E|---------------------------|---------------------------|

00:04
 
 e|0----- 0----- 0---0- 0-----|0----- 0----- 0---0- 0-----|
 B|0------0------0---0--0-----|0------0------0---0--0-----|
 G|1------1------1---1--1-----|1------1------1---1--1-----|
 D|2------2------2---2--2-----|2------2------2---2--2-----|
 A|2------2------2---2--2-----|2------2------2---2--2-----|
 E|0------0------0---0--0-----|0------0------0---0--0-----|
 e|------ ------ ------ ------|------ ------ ------ ------|
 B|-------0-------------------|0--------------------------|
 G|------------------1--------|---------------------------|
 D|2-----------------2--------|---------------------------|
 A|---------------------------|---------------------------|
 E|---------------------------|---------------------------|

Well,
how
 
 e|0----- ------ ------ ------|------ ------ ----0- 0---0-|
 B|0--------------------------|------------------0--0---0-|
 G|1--------------------------|------------------1--1---0-|
 D|2--------------------------|------------------2--2---0-|
 A|2--------------------------|------------------2--2-----|
 E|0--------------------------|------------------0--0-----|

come you you will when won't,
say you
00:10
[C]  
 
 e|0----- ------ ------ ------|------ ------ ----0- ----0-|
 B|1--------------------------|------------------1------1-|
 G|0--------------------------|------------------0------0-|
 D|2--------------------------|------------------2------2-|
 A|3--------------------------|------------------3------3-|
 E|---------------------------|---------------------------|

Say you baby, when don't?
do, you
[E]  
 
 e|0----- ------ ------ ------|------ ------ ----0- 0---0-|
 B|0--------------------------|------------------0--0---0-|
 G|1--------------------------|------------------1--1---0-|
 D|2--------------------------|------------------2--2---0-|
 A|2--------------------------|------------------2--2-----|
 E|0--------------------------|------------------0--0-----|

Let me know, honey, how you feel,
 
 e|0----- ------ ------ ------|------ ------ ------ 0-----|
 B|1--------------------------|---------------------0-----|
 G|0--------------------------|---------------------0-----|
 D|2--------------------------|---------------------------|
 A|3--------------------------|---------------------------|
 E|---------------------------|---------------------------|

Tell truth now, is love real? But uh
the
00:18
[B7] [B11]  
 
 e|2----- 2----- 2----- 2---2-|0---0- 0----- 0----- 0-----|
 B|0------0------0------0---0-|2---2--2------2------2-----|
 G|2------2------2------2---2-|2---2--2------2------2-----|
 D|1------1------1------1---1-|1---1--1------1------1-----|
 A|2------2------2------2---2-|2---2--2------2------2-----|
 E|---------------------------|---------------------------|
 e|------ ------ ------ ------|------ ------ ------ ------|
 B|-------2----------2--------|2----------2---------------|
 G|-------2----------2--------|2----------2---------------|
 D|---------------------------|1--------------------------|
 A|---------------------------|---------------------------|
 E|---------------------------|-------------------------0-|

huh Well, honey don't
00:21
[E]  
 
 e|0---0- 0----- 0----- 0-----|0----- 0----- 0----- 0-----|
 B|0---0--0------0------0-----|0------0------0------0-----|
 G|1---1--1------1------1-----|1------1------1------1-----|
 D|2---2--2------2------2-----|2------2------2------2-----|
 A|2---2--2------2------2-----|2------2------2------2-----|
 E|0---0--0------0------0-----|0------0------0------0-----|
 e|------ ------ ------ ------|------ ------ ------ ------|
 B|---------------------------|---------------------------|
 G|---------------------------|---------------------------|
 D|---------------------------|2---2----------------------|
 A|--------------2---2--4-----|-------4------2---2------2-|
 E|----0--4-------------------|---------------------4-----|

well, honey don't,
 
 e|0----- 0----- 0----- 0---0-|0----- 0----- 0---0- 0---0-|
 B|0------0------0------0---0-|0------0------0---0--0---0-|
 G|1------1------1------1---1-|1------1------1---1--1---1-|
 D|2------2------2------2---2-|2------2------2---2--2---2-|
 A|2------2------2------2---2-|2------2------2---2--2---2-|
 E|0------0------0------0---0-|0------0------0---0--0---0-|
 e|------ ------ ------ ------|------ ------ ------ ------|
 B|---------------------------|---------------------------|
 G|---------------------------|---------------------------|
 D|------------------2--------|---------------------------|
 A|----2---------2------4-----|5------4------2------------|
 E|0------4-------------------|---------------------4-----|

honey don't,
 
 e|0----- 0----- 0---0- 0---0-|0---0- 0----- 0----- 0-----|
 B|0------0------0---0--0---0-|0---0--0------0------0-----|
 G|1------1------1---1--1---1-|1---1--1------1------1-----|
 D|2------2------2---2--2---2-|2---2--2------2------2-----|
 A|2------2------2---2--2---2-|2---2--2------2------2-----|
 E|0------0------0---0--0---0-|0---0--0------0------0-----|
 e|------ ------ ------ ------|------ ------ ------ ------|
 B|---------------------------|---------------------------|
 G|---------------------------|---------------------------|
 D|--------------2---2--------|------------------2--------|
 A|----2---------2------4-----|5------4------2------------|
 E|0------4-------------------|---------------------4-----|

honey don't,
[A7]  
 
 e|3----- 3----- 3---3- 3-----|------ 3----- 3---3- 3---3-|
 B|2------2------2---2--2-----|-------2------2---2--2---2-|
 G|2------2------2---2--2-----|-------2------2---2--2---2-|
 D|2------2------2---2--2-----|-------2------2---2--2---2-|
 A|0------0------0---0--0-----|-------0------0---0--0---0-|
 E|---------------------------|---------------------------|
 e|------ ------ ------ ------|------ ------ ------ ------|
 B|---------------------------|---------------------------|
 G|----2---------2---2--2-----|--------------2---2--------|
 D|----2---------2---2--4-----|5------4------2---2------0-|
 A|0------4-------------------|---------------------4-----|
 E|---------------------------|---------------------------|

honey don't,
[E]  
 
 e|0----- 0----- 0---0- 0---0-|0----- 0----- 0---0- 0-----|
 B|0------0------0---0--0---0-|0------0------0---0--0-----|
 G|1------1------1---1--1---1-|1------1------1---1--1-----|
 D|2------2------2---2--2---2-|2------2------2---2--2-----|
 A|2------2------2---2--2---2-|2------2------2---2--2-----|
 E|0------0------0---0--0---0-|0------0------0---0--0-----|
 e|------ ------ ------ ------|------ ------ ------ ------|
 B|---------------------------|---------------------------|
 G|---------------------------|---------------------------|
 D|--------------2------------|2-------------2---2--------|
 A|--------------2------4-----|-------4------2---2--------|
 E|0------4-------------------|---------------------4-----|

I say you
[B7]  
 
 e|2----- 2---2- 2----- 2-----|2----- 2---2- 2----- 2-----|
 B|0------0---0--0------0-----|0------0---0--0------0-----|
 G|2------2---2--2------2-----|2------2---2--2------2-----|
 D|1------1---1--1------1-----|1------1---1--1------1-----|
 A|2------2---2--2------2-----|2------2---2--2------2-----|
 E|---------------------------|---------------------------|
 e|------ ------ ------ ------|------ ------ ------ ------|
 B|---------------------------|---------------------------|
 G|---------------------------|---------------------------|
 D|---------------------------|---------------------------|
 A|2------2---2---------------|2------0-------------------|
 E|--------------2------2-----|--------------4------2-----|

will you won't, uh huh honey, don't.
when
[E]  
 
 e|0---0- 0---0- 0---0- 0-----|0----- 0----- 0---0- 0-----|
 B|0---0--0---0--0---0--0-----|0------0------0---0--0-----|
 G|1---1--1---1--1---1--1-----|1------1------1---1--1-----|
 D|2---2--2---2--2---2--2-----|2------2------2---2--2-----|
 A|2---2--2---2--2---2--2-----|2------2------2---2--2-----|
 E|0---0--0---0--0---0--0-----|0------0------0---0--0-----|
 e|------ ------ ------ ------|------ ------ ------ ------|
 B|---------------------------|---------------------------|
 G|---------------------------|---------------------------|
 D|----2---------2------------|2----------2------2------2-|
 A|----2---------2------4---2-|----2----------------------|
 E|0------4-------------------|---------------------------|

Well,
I
00:42
 
 e|0----- ------ ------ ------|------ ------ ----0- 0-----|
 B|0--------------------------|------------------0--0-----|
 G|1--------------------------|------------------1--1-----|
 D|2--------------------------|------------------2--2-----|
 A|2--------------------------|------------------2--2-----|
 E|0--------------------------|------------------0--0-----|

love you, baby, and ought to know
you
 
 e|0----- ------ ------ ------|------ ------ ----0- ----0-|
 B|1--------------------------|------------------1------1-|
 G|0--------------------------|------------------0------0-|
 D|2--------------------------|------------------2------2-|
 A|3--------------------------|------------------3------3-|
 E|---------------------------|---------------------------|

I like way that wear your Ev..
the you clothes,
 
 e|0----- ------ ------ ------|------ ------ ----0- 0-----|
 B|0--------------------------|------------------0--0-----|
 G|1--------------------------|------------------1--1-----|
 D|2--------------------------|------------------2--2-----|
 A|2--------------------------|------------------2--2-----|
 E|0--------------------------|------------------0--0-----|

.. erything you so doggone sweet, You
about is
 
 e|0----- ------ ------ ------|------ ------ ----0- 0---0-|
 B|1--------------------------|------------------1--1---0-|
 G|0--------------------------|------------------0--0---0-|
 D|2--------------------------|------------------2--2---0-|
 A|3--------------------------|------------------3--3-----|
 E|---------------------------|---------------------------|

got that sand all over your but uh
feet,
00:53
 
 e|2----- 2----- 2----- 2---2-|0----- 0----- 0----- 0-----|
 B|0------0------0------0---0-|2------2------2------2-----|
 G|2------2------2------2---2-|2------2------2------2-----|
 D|1------1------1------1---1-|1------1------1------1-----|
 A|2------2------2------2---2-|2------2------2------2-----|
 E|---------------------------|---------------------------|
 e|------ ------ ------ ----2-|------ ------ ------ ------|
 B|----2---------2----------2-|----2---------2------------|
 G|----2---------2----------2-|----2---------2------------|
 D|----1---------1------------|----1---------1------------|
 A|---------------------------|---------------------------|
 E|---------------------------|---------------------------|

huh Well, honey don't
00:56
 
 e|0----- 0----- 0---0- 0---0-|0----- 0----- 0---0- 0---0-|
 B|0------0------0---0--0---0-|0------0------0---0--0---0-|
 G|1------1------1---1--1---1-|1------1------1---1--1---1-|
 D|2------2------2---2--2---2-|2------2------2---2--2---2-|
 A|2------2------2---2--2---2-|2------2------2---2--2---2-|
 E|0------0------0---0--0---0-|0------0------0---0--0---0-|
 e|------ ------ ------ ------|------ ------ ------ ------|
 B|---------------------------|---------------------------|
 G|---------------------------|---------------------------|
 D|---------------------------|2---2----------------------|
 A|--------------2------4-----|-------4------2------------|
 E|0---0--4-------------------|---------------------4-----|

well, honey don't,
 
 e|0----- 0----- 0---0- 0---0-|0----- 0----- 0---0- 0-----|
 B|0------0------0---0--0---0-|0------0------0---0--0-----|
 G|1------1------1---1--1---1-|1------1------1---1--1-----|
 D|2------2------2---2--2---2-|2------2------2---2--2-----|
 A|2------2------2---2--2---2-|2------2------2---2--2-----|
 E|0------0------0---0--0---0-|0------0------0---0--0-----|
 e|------ ------ ------ ------|------ ------ ------ ------|
 B|---------------------------|---------------------------|
 G|---------------------------|---------------------------|
 D|---------------------------|------------------2------2-|
 A|--------------2------4-----|5------4------2------------|
 E|0---0--4-------------------|---------------------4-----|

honey don't,
 
 e|0----- 0---0- 0----- 0---0-|0----- 0---0- 0----- 0-----|
 B|0------0---0--0------0---0-|0------0---0--0------0-----|
 G|1------1---1--1------1---1-|1------1---1--1------1-----|
 D|2------2---2--2------2---2-|2------2---2--2------2-----|
 A|2------2---2--2------2---2-|2------2---2--2------2-----|
 E|0------0---0--0------0---0-|0------0---0--0------0-----|
 e|------ ------ ------ ------|------ ------ ------ ------|
 B|---------------------------|---------------------------|
 G|---------------------------|---------------------------|
 D|------------------2--------|------------------2------2-|
 A|----2---------2------4-----|5------4------2------------|
 E|0------4-------------------|---------------------4-----|

honey don't,
[A] [A7]  
 
 e|0----- 0---0- 0----- 0---0-|3----- 3---3- 3----- 3-----|
 B|2------2---2--2------2---2-|2------2---2--2------2-----|
 G|2------2---2--2------2---2-|2------2---2--2------2-----|
 D|2------2---2--2------2---2-|2------2---2--2------2-----|
 A|0------0---0--0------0---0-|0------0---0--0------0-----|
 E|---------------------------|---------------------------|
 e|------ ------ ------ ------|------ ------ ------ ------|
 B|---------------------------|---------------------------|
 G|--------------2------------|---------------------------|
 D|----2---------2------4-----|5------4------2---2------2-|
 A|0------4-------------------|---------------------4-----|
 E|---------------------------|---------------------------|

honey don't,
 
 e|0----- 0---0- 0---0- 0-----|0----- 0---0- ----0- 0-----|
 B|0------0---0--0---0--0-----|0------0---0------0--0-----|
 G|1------1---1--1---1--1-----|1------1---1------1--1-----|
 D|2------2---2--2---2--2-----|2------2---2------2--2-----|
 A|2------2---2--2---2--2-----|2------2---2------2--2-----|
 E|0------0---0--0---0--0-----|0------0---0------0--0-----|
 e|------ ------ ------ ------|------ ------ ------ ------|
 B|---------------------------|---------------------------|
 G|---------------------------|---------------------------|
 D|----2---------2------------|2--------------------------|
 A|----2---------2------4-----|5------4------2------------|
 E|0------4-------------------|---------------------4-----|

I say you
 
 e|2----- 2---2- 2---2- 2---2-|2----- 2---2- 2----- 2-----|
 B|0------0---0--0---0--0---0-|0------0---0--0------0-----|
 G|2------2---2--2---2--2---2-|2------2---2--2------2-----|
 D|1------1---1--1---1--1---1-|1------1---1--1------1-----|
 A|2------2---2--2---2--2---2-|2------2---2--2------2-----|
 E|---------------------------|---------------------------|
 e|------ ------ ------ ------|------ ------ ------ ------|
 B|---------------------------|---------------------------|
 G|---------------------------|---------------------------|
 D|---------------------------|---------------------------|
 A|2----------2-------------1/|2------0-------------------|
 E|--------------2------------|--------------4------2-----|

will you won't, uh huh honey, don't.
when
 
 e|0----- 0----- 0----- 0---0-|0----- 0---0- 0---0- 0---0-|
 B|0------0------0------0---0-|0------0---0--0---0--0---0-|
 G|1------1------1------1---1-|1------1---1--1---1--1---1-|
 D|2------2------2------2---2-|2------2---2--2---2--2---2-|
 A|2------2------2------2---2-|2------2---2--2---2--2---2-|
 E|0------0------0------0---0-|0------0---0--0---0--0---0-|
 e|------ ------ ------ ------|------ ------ ------ ------|
 B|---------------------------|---------------------------|
 G|---------------------------|---------------------------|
 D|----2---------2------------|2----------2---------------|
 A|----2---------2------4---2-|----2----------------------|
 E|0------4-------------------|---------------------------|

Oh, rock George, one time for me
on
SOLO
01:17
 
 e|0----- 0----- 0---0- 0-----|0----- 0----- 0----- 0-----|
 B|0------0------0---0--0-----|0------0------0------0-----|
 G|1------1------1---1--1-----|1------1------1------1-----|
 D|2------2------2---2--2-----|2------2------2------2-----|
 A|2------2------2---2--2-----|2------2------2------2-----|
 E|0------0------0---0--0-----|0------0------0------0-----|
 e|---12- ------ 12---- ---12-|---12- ---12- ---12- 12--8-|
 B|---12---------12--------12-|---12-----12-----12--12--8-|
 G|---13---------13--------13-|---13-----13-----13--13--9-|
 D|---------------------------|---------------------------|
 A|---------------------------|---------------------------|
 E|---------------------------|---------------------------|
 e|0----- 0---0- 0---0- 0-----|0----- 0----- 0----- 0---0-|
 B|1------1---1--1---1--1-----|1------1------1------1---1-|
 G|0------0---0--0---0--0-----|0------0------0------0---0-|
 D|2------2---2--2---2--2-----|2------2------2------2---2-|
 A|3------3---3--3---3--3-----|3------3------3------3---3-|
 E|---------------------------|---------------------------|
 e|8----- 8----- 8----- ---12-|----12 ----12 ----12 12----|
 B|8------8------8---------13-|----13-----13-----13-13----|
 G|9------9------9---------12-|----12-----12-----12-12----|
 D|---------------------------|---------------------------|
 A|---------------------------|---------------------------|
 E|---------------------------|---------------------------|
 e|0----- 0----- 0---0- 0-----|0----- 0----- 0---0- 0---0-|
 B|0------0------0---0--0-----|0------0------0---0--0---0-|
 G|1------1------1---1--1-----|1------1------1---1--1---1-|
 D|2------2------2---2--2-----|2------2------2---2--2---2-|
 A|2------2------2---2--2-----|2------2------2---2--2---2-|
 E|0------0------0---0--0-----|0------0------0---0--0---0-|

( Tab from: http://www.guitartabs.cc/tabs/b/beatles/honey_dont_tab_ver_2.html )
 
 e|---12\ ------ 12\--- ---12-|---12- ---12- ---12- 12--8-|
 B|---12\--------12\-------12-|---12-----12-----12--12--8-|
 G|---13\--------13\-------13-|---13-----13-----13--13--9-|
 D|---------------------------|---------------------------|
 A|---------------------------|---------------------------|
 E|---------------------------|---------------------------|
 e|0----- 0----- 0---0- 0-----|----2- 2---2- 2---2- 2---0-|
 B|1------1------1---1--1-----|x---0--0---0--0---0--0---0-|
 G|0------0------0---0--0-----|x---2--2---2--2---2--2---1-|
 D|2------2------2---2--2-----|x---1--1---1--1---1--1---2-|
 A|3------3------3---3--3-----|----2--2---2--2---2--2---2-|
 E|---------------------------|-------------------------0-|
 e|8----- 8----- ------ ------|------ ------ ------ ------|
 B|8------8-------------------|---------------------------|
 G|9------9-------------------|---------------------------|
 D|---------------------------|---------------------------|
 A|-------------------------1/|2---2--0-------------------|
 E|---------------------------|--------------4------2-----|

I feel fine
01:28
 
 e|0---0- 0----- ------ 0-----|------ 0----- ----0- ----0-|
 B|0---0--0-------------0-----|-------0----------0------0-|
 G|1---1--1-------------1-----|-------1----------1------1-|
 D|2---2--2-------------2-----|-------2----------2------2-|
 A|2---2--2-------------2-----|-------2----------2------2-|
 E|0---0--0-------------0-----|-------0----------0------0-|
 e|------ ------ ------ ------|------ ------ ------ ------|
 B|---------------------------|---------------------------|
 G|---------------------------|---------------------------|
 D|---------------------------|---------------------------|
 A|----2-------------2--------|----2-------------2--------|
 E|0-----H4------4----------0-|------H4------4----------0-|
 e|0---0- 0----- ------ 0-----|----0- 0---0- 0---0- 0---0-|
 B|0---0--0-------------0-----|----0--0---0--0---0--0---0-|
 G|1---1--1-------------1-----|----1--1---1--1---1--1---1-|
 D|2---2--2-------------2-----|----2--2---2--2---2--2---2-|
 A|2---2--2-------------2-----|----2--2---2--2---2--2---2-|
 E|0---0--0-------------0-----|----0--0---0--0---0--0---0-|
 e|------ ------ ------ ------|------ ------ ------ ------|
 B|---------------------------|---------------------------|
 G|---------------------------|---------------------------|
 D|---------------------------|---------------------------|
 A|----2-------------2--------|----2-------------2------0-|
 E|------H4------4----------0-|------H4------4------------|
 e|0----- 3---3- 3---3- 3-----|3----- 3---3- 3---3- 3---0-|
 B|2------2---2--2---2--2-----|2------2---2--2---2--2---0-|
 G|2------2---2--2---2--2-----|2------2---2--2---2--2---0-|
 D|2------2---2--2---2--2-----|2------2---2--2---2--2---0-|
 A|0------0---0--0---0--0-----|0------0---0--0---0--0-----|
 E|---------------------------|---------------------------|
 e|------ ------ ------ ------|------ ------ ------ ------|
 B|---------------------------|---------------------------|
 G|---------------------------|---------------------------|
 D|----2-------------2--------|----2-------------2--------|
 A|------H4------4----------0-|------H4------4------------|
 E|---------------------------|-------------------------0-|

[BmmmmmmmmmmmmmmmmmmmmmmmmmmmmmBmm]  
 
 e|0----- 0----- ------ 0-----|0---0- 0----- ----0- 0---0-|
 B|0------0-------------0-----|0---0--0----------0--0---0-|
 G|1------1-------------1-----|1---1--1----------1--1---0-|
 D|2------2-------------2-----|2---2--2----------2--2---0-|
 A|2------2-------------2-----|2---2--2----------2--2-----|
 E|0------0-------------0-----|0---0--0----------0--0-----|
 e|------ ------ ------ ------|------ ------ ------ ------|
 B|---------------------------|---------------------------|
 G|---------------------------|---------------------------|
 D|---------------------------|---------------------------|
 A|----2-------------2--------|----2-------------2------2-|
 E|------H4------4----------0-|------H4------4------------|
 e|2---2- 2---2- 2---2- 2-----|0----- 0----- 0----- 0-----|
 B|0---0--0---0--0---0--0-----|2------2------2------2-----|
 G|2---2--2---2--2---2--2-----|2------2------2------2-----|
 D|1---1--1---1--1---1--1-----|1------1------1------1-----|
 A|2---2--2---2--2---2--2-----|2------2------2------2-----|
 E|---------------------------|---------------------------|
 e|------ ------ ------ ------|------ ------ ------ ------|
 B|---------------------------|---------------------------|
 G|---------------------------|---------------------------|
 D|--------------1---4--------|--------------2---2--------|
 A|---------------------4-----|2------4---2---------4---2-|
 E|---------------------------|---------------------------|

I'm sad
 
 e|----0- 0----- ----0- 0-----|----0- 0----- ----0- 0-----|
 B|----0--0----------0--0-----|----0--0----------0--0-----|
 G|----1--1----------1--1-----|----1--1----------1--1-----|
 D|----2--2----------2--2-----|----2--2----------2--2-----|
 A|----2--2----------2--2-----|----2--2----------2--2-----|
 E|----0--0----------0--0-----|----0--0----------0--0-----|
 e|------ ------ ------ ------|------ ------ ------ ------|
 B|---------------------------|---------------------------|
 G|---------------------------|---------------------------|
 D|---------------------------|2----------2------2------2-|
 A|----2---------2----------2-|----2----------------------|
 E|0------4-------------------|---------------------------|

Well, some..
01:46
 
 e|0----- ------ ------ ------|------ ------ ----0- 0---0-|
 B|0--------------------------|------------------0--0---0-|
 G|1--------------------------|------------------1--1---0-|
 D|2--------------------------|------------------2--2---0-|
 A|2--------------------------|------------------2--2-----|
 E|0--------------------------|------------------0--0-----|
 e|------ ------ ------ ------|------ ------ ------ ------|
 B|---------------------------|---------------------------|
 G|---------------------------|---------------------------|
 D|---------------------------|---------------------------|
 A|---------------------------|---------------------------|
 E|0--------------------------|---------------------------|

times love on a Saturday night,
I you
 
 e|0----- ------ ------ ------|------ ------ 0---0- 0---0-|
 B|1--------------------------|--------------1---1--1---0-|
 G|0--------------------------|--------------0---0--0---0-|
 D|2--------------------------|--------------2---2--2---0-|
 A|3--------------------------|--------------3---3--3-----|
 E|---------------------------|---------------------------|

Sunday morning don't look right.
you
 
 e|0----- ------ ------ ------|------ ------ ----0- 0---0-|
 B|0--------------------------|------------------0--0---0-|
 G|1--------------------------|------------------1--1---0-|
 D|2--------------------------|------------------2--2---0-|
 A|2--------------------------|------------------2--2-----|
 E|0--------------------------|------------------0--0-----|

You've out painting town,
been the
 
 e|0----- ------ ------ ------|------ ------ ---0-- 0---0-|
 B|1--------------------------|-----------------1---1---0-|
 G|0--------------------------|-----------------0---0---0-|
 D|2--------------------------|-----------------2---2---0-|
 A|3--------------------------|-----------------3---3-----|
 E|---------------------------|---------------------------|

Uh huh baby, been stepping but huh
around,
01:58
 
 e|0----- 0----- 0----- 0-----|0----- 0----- 0----- 0-----|
 B|2------2------2------2-----|2------2------2------2-----|
 G|2------2------2------2-----|2------2------2------2-----|
 D|1------1------1------1-----|1------1------1------1-----|
 A|2------2------2------2-----|2------2------2------2-----|
 E|---------------------------|---------------------------|
 e|------ ------ ------ ----2-|------ ------ ------ ------|
 B|----2---------2----------2-|----2-------------2--------|
 G|----2---------2------------|----2-------------2--------|
 D|---------------------------|---------------------------|
 A|---------------------------|---------------------------|
 E|---------------------------|---------------------------|

huh Well, honey don't
02:01
 
 e|0---0- 0----- 0---0- 0-----|0----- 0----- 0---0- 0---0-|
 B|0---0--0------0---0--0-----|0------0------0---0--0---0-|
 G|1---1--1------1---1--1-----|1------1------1---1--1---1-|
 D|2---2--2------2---2--2-----|2------2------2---2--2---2-|
 A|2---2--2------2---2--2-----|2------2------2---2--2---2-|
 E|0---0--0------0---0--0-----|0------0------0---0--0---0-|
 e|------ ------ ------ ------|------ ------ ------ ------|
 B|---------------------------|---------------------------|
 G|---------------------------|---------------------------|
 D|---------------------------|2--------------------------|
 A|--------------2------4-----|-------4-------------------|
 E|0---0--4-------------------|--------------0------3/4---|

I say honey don't,
 
 e|0---0- 0----- ----0- ----0-|0----- 0----- ----0- 0---0-|
 B|0---0--0----------0------0-|0------0----------0--0---0-|
 G|1---1--1----------1------1-|1------1----------1--1---1-|
 D|2---2--2----------2------2-|2------2----------2--2---2-|
 A|2---2--2----------2------2-|2------2----------2--2---2-|
 E|0---0--0----------0------0-|0------0----------0--0---0-|
 e|------ ------ ------ ------|------ ------ ------ ------|
 B|---------------------------|---------------------------|
 G|---------------------------|---------------------------|
 D|---------------------------|----2------2------2--------|
 A|--------------2------4-----|5------4------2----------2-|
 E|0---0--4-------------------|---------------------4-----|

honey don't,
 
 e|0----- 0----- 0---0- 0-----|0----- ----0- 0---0- 0-----|
 B|0------0------0---0--0-----|0----------0--0---0--0-----|
 G|1------1------1---1--1-----|1----------1--1---1--1-----|
 D|2------2------2---2--2-----|2----------2--2---2--2-----|
 A|2------2------2---2--2-----|2----------2--2---2--2-----|
 E|0------0------0---0--0-----|0----------0--0---0--0-----|
 e|------ ------ ------ ------|------ ------ ------ ------|
 B|---------------------------|---------------------------|
 G|---------------------------|---------------------------|
 D|---------------------------|--------------2------------|
 A|----2---------2------4-----|5------4------2----------2-|
 E|0------4-------------------|---------------------4-----|

honey don't,
 
 e|3----- 3---3- 3---3- 3-----|3----- 3----- 3----- 3-----|
 B|2------2---2--2---2--2-----|2------2------2------2-----|
 G|2------2---2--2---2--2-----|2------2------2------2-----|
 D|2------2---2--2---2--2-----|2------2------2------2-----|
 A|0------0---0--0---0--0-----|0------0------0------0-----|
 E|---------------------------|---------------------------|
 e|------ ------ ------ ------|------ ------ ------ ------|
 B|---------------------------|---------------------------|
 G|----0--0------0------------|---------------------------|
 D|----2--2------2------4---2-|5---2--4------2----------2-|
 A|0------4-------------------|---------------------4-----|
 E|---------------------------|---------------------------|

honey don't,
 
 e|0----- 0---0- 0---0- 0---0-|0----- 0---0- 0---0- 0---0-|
 B|0------0---0--0---0--0---0-|0------0---0--0---0--0---0-|
 G|1------1---1--1---1--1---1-|1------1---1--1---1--1---0-|
 D|2------2---2--2---2--2---2-|2------2---2--2---2--2---0-|
 A|2------2---2--2---2--2---2-|2------2---2--2---2--2-----|
 E|0------0---0--0---0--0---0-|0------0---0--0---0--0-----|
 e|------ ------ ------ ------|------ ------ ------ ------|
 B|---------------------------|---------------------------|
 G|---------------------------|---------------------------|
 D|---------------------------|---------------------------|
 A|----2---------2----------2-|----2---------2------------|
 E|0------4-------------0-----|0------4-------------------|

I say you
 
 e|2----- 2---2- 2---2- 2-----|2----- 2---2- 2----- 2-----|
 B|0------0---0--0---0--0-----|0------0---0--0------0-----|
 G|2------2---2--2---2--2-----|2------2---2--2------2-----|
 D|1------1---1--1---1--1-----|1------1---1--1------1-----|
 A|2------2---2--2---2--2-----|2------2---2--2------2-----|
 E|---------------------------|---------------------------|
 e|------ ------ ------ ------|------ ------ ------ ------|
 B|---------------------------|---------------------------|
 G|---------------------------|---------------------------|
 D|---------------------------|---------------------------|
 A|2----------2---------------|2------0-------------------|
 E|--------------2------------|--------------4------2-----|

will you won't, uh huh honey, don't.
when
 
 e|0----- 0----- 0---0- 0---0-|0----- 0----- 0---0- 0---0-|
 B|0------0------0---0--0---0-|0------0------0---0--0---0-|
 G|1------1------1---1--1---1-|1------1------1---1--1---1-|
 D|2------2------2---2--2---2-|2------2------2---2--2---2-|
 A|2------2------2---2--2---2-|2------2------2---2--2---2-|
 E|0------0------0---0--0---0-|0------0------0---0--0---0-|
 e|------ ------ ------ ------|------ ------ ------ ------|
 B|---------------------------|---------------------------|
 G|---------------------------|---------------------------|
 D|----2---------2------------|2----------2---------------|
 A|----2---------2------4---2-|----2----------------------|
 E|0------4-------------------|---------------------------|

Oh, rock George, Ringo one time
on for
02:22
SOLO
 
 e|0----- 0----- 0---0- 0-----|0----- 0----- 0----- 0---0-|
 B|0------0------0---0--0-----|0------0------0------0---0-|
 G|1------1------1---1--1-----|1------1------1------1---1-|
 D|2------2------2---2--2-----|2------2------2------2---2-|
 A|2------2------2---2--2-----|2------2------2------2---2-|
 E|0------0------0---0--0-----|0------0------0------0---0-|
 e|---12- ------ ------ ---12-|---12- ------ ---12- ------|
 B|---12---------12--------12-|---12-----12-----12--12----|
 G|---13---------13--------13-|---13-----13-----13--13----|
 D|---------------------------|---------------------------|
 A|---------------------------|---------------------------|
 E|---------------------------|---------------------------|
 e|0----- 0---0- 0---0- 0-----|0----- 0----- 0---0- 0---0-|
 B|1------1---1--1---1--1-----|1------1------1---1--1---1-|
 G|0------0---0--0---0--0-----|0------0------0---0--0---0-|
 D|2------2---2--2---2--2-----|2------2------2---2--2---2-|
 A|3------3---3--3---3--3-----|3------3------3---3--3---3-|
 E|---------------------------|---------------------------|
 e|------ ------ ------ ------|-----8 ------ -----8 ----8-|
 B|----8---------8----------8-|-----8------8------8--8--8-|
 G|----9---------9----------9-|-----9------9------9--9--9-|
 D|---10--------10---------10-|-----------10--------10----|
 A|---------------------------|---------------------------|
 E|---------------------------|---------------------------|
 e|0----- 0---0- 0----- 0-----|0----- 0----- 0---0- 0-----|
 B|0------0---0--0------0-----|0------0------0---0--0-----|
 G|1------1---1--1------1-----|1------1------1---1--1-----|
 D|2------2---2--2------2-----|2------2------2---2--2-----|
 A|2------2---2--2------2-----|2------2------2---2--2-----|
 E|0------0---0--0------0-----|0------0------0---0--0-----|
 e|---12- ------ ------ ------|---12- ---12- ---12- ----8-|
 B|---12---------12--------12-|---12-----12-----12------8-|
 G|---13---------13--------13-|---13-----13-----13------9-|
 D|---------------------------|---------------------------|
 A|---------------------------|---------------------------|
 E|---------------------------|---------------------------|
 e|0----- 0----- 0----- 0-----|2---2- 2---2- 2---2- 2---0-|
 B|1------1------1------1-----|0---0--0---0--0---0--0---0-|
 G|0------0------0------0-----|2---2--2---2--2---2--2---0-|
 D|2------2------2------2-----|1---1--1---1--1---1--1---0-|
 A|3------3------3------3-----|2---2--2---2--2---2--2-----|
 E|---------------------------|---------------------------|
 e|8----- 8----- ------ ------|------ ------ ------ ------|
 B|8------8-------------------|---------------------------|
 G|9------9-------------------|---------------------------|
 D|---------------------------|---------------------------|
 A|-------------------------1/|2---2--0---2---------------|
 E|---------------------------|--------------4------2-----|

02:33
 
 e|0---0- 0----- 0---0- 0-----|0----- 0---0- 0---0- 0---0-|
 B|0---0--0------0---0--0-----|0------0---0--0---0--0---0-|
 G|1---1--1------1---1--1-----|1------1---1--1---1--1---1-|
 D|2---2--2------2---2--2-----|2------2---2--2---2--2---2-|
 A|2---2--2------2---2--2-----|2------2---2--2---2--2---2-|
 E|0---0--0------0---0--0-----|0------0---0--0---0--0---0-|
 e|------ ------ ------ ------|------ ------ ------ ------|
 B|---------------------------|---------------------------|
 G|---------------------------|---------------------------|
 D|---------------------------|---------------------------|
 A|----2---------2----------2-|----2---------2---2------2-|
 E|0------3/4-----------3/4---|0------4-------------4-----|

Well, don't
honey
 
 e|0----- 0---0- 0----- 0-----|0---0- 0----- 0---0- 0---0-|
 B|0------0---0--0------0-----|0---0--0------0---0--0---0-|
 G|1------1---1--1------1-----|1---1--1------1---1--1---1-|
 D|2------2---2--2------2-----|2---2--2------2---2--2---2-|
 A|2------2---2--2------2-----|2---2--2------2---2--2---2-|
 E|0------0---0--0------0-----|0---0--0------0---0--0---0-|
 e|------ ------ ------ ------|------ ------ ------ ------|
 B|---------------------------|---------------------------|
 G|---------------------------|---------------------------|
 D|---------------------------|---------------------------|
 A|----2---------2----------2-|----2---------2----------2-|
 E|0------4-------------4-----|-------4-------------4-----|

Well, honey
 
 e|3---3- 3----- 3----- 3--3--|----3- 3----- 3---3- 3-----|
 B|2---2--2------2------2--2--|----2--2------2---2--2-----|
 G|2---2--2------2------2--2--|----2--2------2---2--2-----|
 D|2---2--2------2------2--2--|----2--2------2---2--2-----|
 A|0---0--0------0------0--0--|----0--0------0---0--0-----|
 E|---------------------------|---------------------------|
 e|------ ------ ------ ------|------ ------ ------ ------|
 B|---------------------------|---------------------------|
 G|---------------------------|---------------------------|
 D|----2---------2------4-----|5------4------2---2------2-|
 A|0------4-------------------|---------------------4-----|
 E|---------------------------|---------------------------|

don't a little little honey
 
 e|0---0- 0----- 0----- ----0-|----0- 0---0- ----0- 0---0-|
 B|0---0--0------0------x---0-|----0--0---0------0--0---0-|
 G|1---1--1------1------x---1-|----1--1---1------1--1---0-|
 D|2---2--2------2------x---2-|----2--2---2------2--2---0-|
 A|2---2--2------2----------2-|----2--2---2------2--2-----|
 E|0---0--0------0----------0-|----0--0---0------0--0-----|
 e|------ ------ ------ ------|------ ------ ------ ------|
 B|---------------------------|---------------------------|
 G|---------------------------|---------------------------|
 D|---------------------------|2---2----------------------|
 A|----2---------2---2--------|-------4------2------------|
 E|0------3/4-----------------|---------------------4-----|

don't, I say you
 
 e|2----- 2---2- 2----- 2-----|2----- 2---2- 2----- 2-----|
 B|0------0---0--0------0-----|0------0---0--0------0-----|
 G|2------2---2--2------2-----|2------2---2--2------2-----|
 D|1------1---1--1------1-----|1------1---1--1------1-----|
 A|2------2---2--2------2-----|2------2---2--2------2-----|
 E|---------------------------|---------------------------|
 e|------ ------ ------ ------|------ ------ ------ ------|
 B|---------------------------|---------------------------|
 G|---------------------------|---------------------------|
 D|---------------------------|---------------------------|
 A|2------0-------------4-----|2------0-------------------|
 E|--------------2------------|--------------4------2-----|

will you won't, uh huh honey, don't.
when
(.
 
 e|0----- 0----- 0---0- 0-----|0----- 0---0- ------ 0-----|
 B|0------0------0---0--0-----|0------0---0---------0-----|
 G|1------1------1---1--1-----|1------1---1---------1-----|
 D|2------2------2---2--2-----|2------2---2---------2-----|
 A|2------2------2---2--2-----|2------2---2---------2-----|
 E|0------0------0---0--0-----|0------0---0---------0-----|
 e|------ ----0- ------ ------|------ ------ ------ ------|
 B|----0------0--0------0-----|0--------------------------|
 G|----4---------3------2-----|0H1------------------------|
 D|---------------------------|----2------2---------------|
 A|---------------------------|-------4-------------------|
 E|---------------------------|---------------------------|

B Bend
R Release
/ Slide up
\ Slide down
H Hammer-on
P Pull-off
~ Vibrato
+ Harmonic
x Mute note
. Play note like a dot in standard notation
^ Ties two notes together
(. Pause

Important: The song above is NOT stored on the Chordie server. The original song is hosted at www.guitartabs.cc. Chordie works as a search engine and provides on-the-fly formatting. Chordie does not index songs against artists'/composers' will. To remove this song please click here.

Text color:
Chord color:
Chord grids: 
Font size:    
Page size: 

A A7 B11 B7 C E
Rate #2 of 2 versions

Jango Player

Login - add to songbook

SHARE PAGE  




You need to log in to post comments