Guitar Tabs, Chords and Lyrics
Server problems seems to be fixed. Chordie has been experiencing problems with songs disappearing. These issues now seems to be fixed, but still verifying the fix. If you find anything strange, please email admin@chordie.com.


Within You Without You  The Beatles

Within You Without You (for acoustic guitar)
The Beatles (George Harrison)
* These are notes from the guitar fingerboard (fretboard), not chords:
translations are at the end. Because George Harrison used an Indian sitar,
exactness using an acoustic is very difficult. Moving a capo around the neck may
help. Also, using a slide may better simulate the sitar. Note that all notes are on the D string.
[E]We [F]were [G]tal[A#]king
[A#]A [A]bout [E]the [G]space [E]be [G]tween [F]us [E]all
[E]And [F]the [G]peo[A#]ple [A#]who [A]hide [E]them[G]selves
[E]Be[G]hind [F]a [E]wall [E]of [F]il[G]lusi[E]on
[E]Ne[F]ver [A]glimpse [G]the [A#]truth
[E]Then [F]it's [G]far [A#]too [C#]late
[A]When [C#]they [A#]pass [E]a w[G]ay[F] [E]
 
 e|---------------------------------------|
 B|---------------------------------------|
 G|---------------------------------------|
 D|-2--3----5---8-------------------------|
 A|---------------------------------------|
 E|---------------------------------------|

We were talking
 
 e|---------------------------------------|
 B|---------------------------------------|
 G|---------------------------------------|
 D|-8-7---2---5-----2-5-----3--2----------|
 A|---------------------------------------|
 E|---------------------------------------|

About the space between us all
 
 e|---------------------------------------|
 B|---------------------------------------|
 G|---------------------------------------|
 D|-2---3---5--8---8---7----2---5---------|
 A|---------------------------------------|
 E|---------------------------------------|

And the people who hide themselves
 
 e|---------------------------------------|
 B|---------------------------------------|
 G|---------------------------------------|
 D|-2-5----3-2----2--3-5---2--------------|
 A|---------------------------------------|
 E|---------------------------------------|

Behind a wall of illusion
 
 e|---------------------------------------|
 B|---------------------------------------|
 G|---------------------------------------|
 D|-2-3---7-------5----8------------------|
 A|---------------------------------------|
 E|---------------------------------------|

Never glimpse the truth
 
 e|---------------------------------------|
 B|---------------------------------------|
 G|---------------------------------------|
 D|-2----3----5---8---11------------------|
 A|---------------------------------------|
 E|---------------------------------------|

Then it s far too late
 
 e|---------------------------------------|
 B|---------------------------------------|
 G|---------------------------------------|
 D|-7----11---8----2-5-3-2----------------|
 A|---------------------------------------|
 E|---------------------------------------|

When they pass a way
[E]We [F]were [G]tal[A#]king
[A#]A [A]bout [E]the [G]love [E]we [G]all [F]could [E]share
[E]When [F]we [G]find [A#]it
[A#]To [A]try [E]our [G]best [E]to [G]hold [F]it [E]there
[E]With [F]our [G]love, [E]with [F]our [G]lo[A#]ve
[E]We [F]could [G]save [A#]the [C#]world
[G#]If [A]they [B]on[D]ly [D#]knew
[F#]Try [G#]to [A]re[G]al[A]ize [F#]it's [G#]all [F#]with[A]in [G]your[G#]self
[E]No [G]one else [E]can [G]make [F]you [E]change
[F#]And [G#]to [A]see [G]you're [A]real[F#]ly [G#F#]only [A]very [G#]small
[E]And [G]life [E]flows [G]on [E]wit[F]hin [E]you and with[G]out [E]you
break
[E]We [F]were [G]tal[A#]king
[A#]Abo[A]ut [E]the [G]love [E]that's [G]gone [F]so [E]cold
[E]And [F]the [G]peo[A#]ple [A#]who [A]gain [E]the [G]world
[E]And [G]lose [F]their [E]soul
[E]They [F]don't [G]kno[E]w, they [F]can't [A#]see
[E]Are [F]you [G]one [A#]of [C#]them?[G#] [A] [B] [D] [D#]
[F#]When [G#]you've [A]seen [G]be[A]yond [F#]yours[G#]elf
[F#]Then [A]you [G]may [G#]find
[E]Peace [G]of [E]mind [G]is [F]waiting [E]there
[F#]And [G#]the [A]time [G]will [A]come
[F#]When [G#]you [F#]see we're [A]all [G#]one
[E]And [G]life [E]flows [G]on [E]wit[F]hin [E]you and with[G]out [E]you
* Guitar notes translated from fretboard:
E = D string, 2nd fret
F = D string, 3rd fret
G = D string, 5th fret
A# = D string, 8th fret
A = D string, 7th fret
C# = D string, 11th fret
C = D string, 10th fret
G# = D string, 6th fret
B = D string, 9th fret
D = D string, 12th fret
D# = D string, 13th fret
Set8

Important: The song above is NOT stored on the Chordie server. The original song is hosted at www.guitartabs.cc. Chordie works as a search engine and provides on-the-fly formatting. Chordie does not index songs against artists'/composers' will. To remove this song please click here.

Text color:
Chord color:
Chord grids: 
Font size:    
Page size: 

A A# B C# D D# E F F# G G#
Rate #1 of 4 versions

Login - add to songbook

SHARE PAGE  



You need to log in to post comments