Guitar Tabs, Chords and Lyrics
Server problems seems to be fixed. Chordie has been experiencing problems with songs disappearing. These issues now seems to be fixed, but still verifying the fix. If you find anything strange, please email admin@chordie.com.


Yellow Submarine  The Beatles

 
 e]-----------------------------------|
 g]------1----------------------------|
 b]--2-3---2-0-2---2-2-0-------2-2-0--|
 d]--------------3-------3-0----------|
 f]--------------------------3--------|
 e]-----------------------------------|

in the town where i was born lived a
man who sailed to sea
 
 e]-----------------------------------|
 g]------1----------------------------|
 b]--2-3---2-0-2---2-2-0-------2-2-0--|
 d]--------------3-------3-0----------|
 f]--------------------------3--------|
 e]-----------------------------------|

and he told us of his life in the
land of submarines
 
 e]--------------------------------------|
 g]------1-------------------------------|
 b]--2-3---2-0-2---2-2-0]]-------2-2-0---|
 d]--------------3-------3-0-------------|
 f]--------------------------3-----------|
 e]--------------------------------------|

so we sailed on to the sun till we
found the sea of green
 
 e]-----------------------------------|
 g]------1----------------------------|
 b]--2-3---2-0-2---2-2-0-----2-2-0----|
 d]--------------3-------3-0----------|
 f]-----------------------------------|
 e]-----------------------------------|

and we lived beneath the waves in
our yellow submarine
chorus:
We[F] all live in a [C]yellow submarine, yellow submarine, [F]yellow submarine, We
all live in a [C]yellow submarine, yellow submarine, [F]yellow submarine,
 
 e]-----------------------------------|
 g]------1----------------------------|
 b]--2-3---2-0-2---2-2-0----2-2-0-----|
 d]--------------3------3-0-----------|
 f]-----------------------------------|
 e]-----------------------------------|

and our friends are all aboard many
more of then live next door
 
 e]-----------------------------------|
 g]------1----------------------------|
 b]--2-3---2-0-2----------------------|
 d]--------------3--------------------|
 f]-----------------------------------|
 e]-----------------------------------|

and the band begins to play...
A TRUMPET PLAYS A PART THEN GOES TO
chorus:
[F]we all live in a y[C]ellow submarine, yellow submarine, [F]yellow submarine. we
all live in a [C]yellow submarine, yellow submarine, [F]yellow submarine.
[F]yellow submarine.
BEGIN FADE: fade:
w[F]e all live in a [C]yellow submarine, yellow submarine, [F]yellow submarine.
IVE ONLY BEEN PLAYING FOR HALF A YEAR AND I CAN PLAY IT SO ITS EASY JUST LISTEN TO THE SONG FOR TIMINGS

Important: The song above is NOT stored on the Chordie server. The original song is hosted at www.guitartabs.cc. Chordie works as a search engine and provides on-the-fly formatting. Chordie does not index songs against artists'/composers' will. To remove this song please click here.

Text color:
Chord color:
Chord grids: 
Font size:    
Page size: 

C F
Rate #1 of 27 versions

Login - add to songbook

SHARE PAGE  



You need to log in to post comments