Guitar Tabs, Chords and Lyrics
Major upgrade!! After one year development the new version of Chordie is now online! Please give feedback.


You Never Give Me Your Money  The Beatles

 
 -------------------------------------------------------------------

THE BEATLES - YOU NEVER GIVE ME YOUR MONEY (Lennon/McCartney)
From ABBEY ROAD album. Released 26th September
1969.
 
 -------------------------------------------------------------------

Tabbed by:PJVillanueva
You never give me your money
You only give me your funny paper
and in the middle of negotiations
you break down
I never give you my number
I only give you my situation
and in the middle of investigation
I break down
Out of college, money spent
See no future, pay no rent
All the money's gone nowhere to go
Any jobber got the sack
Monday morning turning back
Yellow lorry slow nowhere to go
But oh, that magic feeling, nowhere to go
Oh, that magic feeling
Nowhere to go
One sweet dream
Pick up the bags and get in the limousine
Soon we'll be away from here
Step on the gas and wipe that tear away
One sweet dream came true today
Came true today
Came true today, yes it did
One two three four five six seven,
All good children go to Heaven
[Dm7] 
[Am7]  
 
 e|----12- 12--12- 12--12- 12-----|12----- ----10- ------- 10-----|
 B|----10--10--10--10--10--10-----|10----------13----------13-----|
 G|----12--12--12--12--12--12--12-|12----------10----------10-----|
 D|-------------------------------|----12------12------12--12-----|
 A|0------------------------------|--------12------------------12-|
 E|-------------------------------|10-----------------------------|

[G7]  
 
 e|----10- 10--10- 10--10- 10-----|13----- 12----- ------- -------|
 B|----12--12--12--12--12--12-----|------------13-----------------|
 G|----10--10--10--10--10--10--10-|--------------------12---------|
 D|----12--12--12--12--12--12-----|------------------------10-----|
 A|10-----------------------------|-------------------------------|
 E|-------------------------------|-------------------------------|
 e|------- ------- ------- -------|------- ------- ------- -------|
 B|-------------------------------|-------------------------------|
 G|-------------------------------|5H7-----5---5-------5----------|
 D|-------------------------------|5-------5---5H7-----5----------|
 A|-------------------------------|------------------------7\6/7--|
 E|-------------------------------|-------------------------------|

[Fmaj7] [Bm7] [E7]  
 
 e|----8-- 8---8-- 8---8-- 8---8--|7------ ----0-- ------- 0---4--|
 B|---10--10--10--10--10--10--10--|7-----------0-------0----------|
 G|----9---9---9---9---9---9---9--|7-------7---1------------------|
 D|---10--10--10--10--10--10--10--|7---9-------0------------------|
 A|8------------------------------|-------------------------------|
 E|-------------------------------|7-----------0------------------|
 e|------- ------- ------- -------|------- ------- ------- -------|
 B|-------------------------------|-------------------------------|
 G|-------------------------------|-------------------------------|
 D|-------------------------------|-------------------------------|
 A|-------------------------------|-------------------------------|
 E|8------------------------------|-------------------------------|

[Am] [A7]  
 
 e|5------ ----8-- ------- -------|------- ----12- ------- -------|
 B|5------------------------------|------------10-----------------|
 G|5------------------------------|------------12-----------------|
 D|7-------7-------7-------7------|-------------------------------|
 A|----7-------7-------7-------7--|12------12--------------12--0--|
 E|-------------------------------|----12---------------12--------|
 e|------- ------- ------- -------|------- ------- ------- -------|
 B|------------5------------------|-------------------------------|
 G|5-----------5------------------|----------------------------5--|
 D|5H7----------------------------|----------------------------5--|
 A|-------------------------------|--------------------7\6/7------|
 E|-------------------------------|-------------------------------| 

[Am7] [Dm]  
 
 e|----12- 12--12- 12--12- 12--12-|12----- ----10- ------- 10-----|
 B|----10--10--10--10--10--10--10-|10----------10----------10-----|
 G|----12--12--12--12--12--12--12-|12----------10----------10-----|
 D|-------------------------------|-0---0----------0---0----------|
 A|0------------------------------|---------------------------12--|
 E|-------------------------------|-------------------------------|

You never give me your money
[G7] [C]  
 
 e|10----- ----10- ------- 10-----|-8----- -----8- ------- 8------|
 B|12----------12----------12-----|-8-----------8----------8------|
 G|10----------10----------10-----|-9-----------9----------9------|
 D|12----------12------12--12-----|10----------10---------10------|
 A|10----------10----------10-----|--------------------10------10-|
 E|-------------------------------|-8-----------8-----------------|

You only give me your funny paper
 
 e|------- ------- ------- -------|------- ------- ------- -------|
 B|-------------------------------|-------------------------------|
 G|-------------------------------|5H7-----5---5---------------5--|
 D|-------------------------------|5-------5---5------------------|
 A|-------------------------------|--------------------7\6/7------|
 E|-------------------------------|-------------------------------|

[Fmaj7] [E7sus4] [E7]  
 
 e|-8----- ----8-- ------- 8------|-7----- 7----7- ------- 7------|
 B|10---------10----------10------|10-----10----9----------9------|
 G|-9----------9-----------9------|-7------7----7----------7------|
 D-10---------10----------10------|-9------9----9----------9------|
 A|-8----------8-------8---8------|-7------7---------------7------|
 E|-------------------------------|----------------0---0-------0--|

and in the middle of negotiations you
 
 e|------- ------- ------- -------|------- ------- ------- -------|
 B|-------------------------------|-------------------------------|
 G|-------------------------------|-------------------------------|
 D|-------------------------------|-------------------------------|
 A|8------------------------------|-------------------------------|
 E|8------------------------------|-------------------------------|

[Am] [Am7]  
 
 e|5------ 5------ 5---5-- 5------|------- ----12- ------- -------|
 B|5-------5-------5---5---5------|----10--13--10-----------------|
 G|5-------5-------5---5---5------|------------12-----------------|
 D|7-------7-------7---7---7------|-------------------------------|
 A|-------------------------------|--------------------0---0---0--|
 E|5---------------5-----------5--|-------------------------------|

break down
 
 e|------- ------- ------- -------|------- ------- ------- -------|
 B|------------5------------------|-------------------------------|
 G|5-----------5------------------|----------------7P5------------|
 D|5H7----------------------------|--------------------7P5H7P5----|
 A|-------------------------------|----------------------------7P5/
 E|-------------------------------|-------------------------------|

[Am7] [Dm]  
 
 e|------- 12----- ----12- -------|12----- ----10- ------- 10-----|
 B|--------10----------10---------|10----------10----------10-----|
 G|--------12----------12---------|12----------10----------10-----|
 D|-------------------------------|-0-----------------------0-----|
 A|0------------------------------|----------------------------10-|
 E|-------------------------------|-------------------------------|

I never give you my number
 
 e|------- ------- ------- -------|------- ------- ------- -------|
 B|-------------------------------|-------------------------------|
 G|-------------------------------|-------------------------------|
 D|-------------------------------|-------------------------------|
 A|7------------------------------|-------------------------------|
 E|-------------------------------|-------------------------------|

[G7] [C]  
 
 e|10----- ----10- ------- 10-----|-8----- -----8- ------- 8------|
 B|12----------12----------12-----|-8-----------8----------8------|
 G|10----------10----------10-----|-9-----------9----------9------|
 D|12----------12----------12-----|10----------10----------9------|
 A|10----------10----------10-----|-------------------------------|
 E|-------------------------------|-8-----------8----------8------|

I only give you my situation
 
 e|------- ------- ------- -------|------- ------- ------- -------|
 B|-------------------------------|-------------------------------|
 G|-------------------------------|5-----------5-------5----------|
 D|-------------------------------|5-----------5H7-----5----------|
 A|-------------------------------|------------------------7\6/7--|
 E|-------------------------------|-------------------------------|

[Fmaj7] [E7sus4] [E7]  
 
 e|-8----- ----8-- ------- 8------|-7----- 7----7- ------- 7------|
 B|10---------10----------10------|10-----10----9----------9------|
 G|-9----------9-----------9------|-7------7----7----------7------|
 D-10---------10----------10------|-9------9----9----------9------|
 A|-8----------8-----------8------|-7------------------7----------|
 E|-------------------------------|------------------------0------|

and in the middle of investigation I
 
 e|------- ------- ------- -------|------- ------- ------- -------|
 B|-------------------------------|-------------------------------|
 G|-------------------------------|-------------------------------|
 D|-------------------------------|-------------------------------|
 A|-------------------------------|-------------------------------|
 E|8------------------------------|-------------------------------|

x x x x x x x x x X X X
[Am] [C] [G]  
 
 e|5------ ----5-- ------- -------|----0-- 0------ ------- -------|
 B|5-----------5------------------|----1---1-------3--------------|
 G|5-----------5------------------|----0---0-------0--------------|
 D|7-----------7------------------|----2---2-------0--------------|
 A|-------------------------------|----3---3-------2--------------|
 E|5-----------5------------------|----------------3--------------|

break down
[C] [E]  
 
 e|0----0- 0----0- 0----0- 0------|0------ 0------ 0------ 0----0-|
 B|1----1--1----1--1----1--1------|0-------0-------0-------0----0-|
 G|0----0--0----0--0----0--0------|1-------1-------1-------1----1-|
 D|2----2--2----2--2----2--2------|2-------2-------2-------2----2-|
 A|3----3--3----3--3----3--3------|2-------2-------2-------2----2-|
 E|3----3--3----3--3----3--3------|0-------0-------0-------0----0-|

Out of college, money spent
[Am] [C7]  
 
 e|0----0- -----0- -----0- 0------|0----0- 0------ 0----0- 0----0-|
 B|1----1-------1-------1--1------|1----1--1-------1----1--1----1-|
 G|2----2-------2-------2--2------|3----3--3-------3----3--3----3-|
 D|2----2-------2-------2--2------|2----2--2-------2----2--2----2-|
 A|0----0-------0-------0--0------|3----3--3-------3----3--3----3-|
 E|-------------------------------|-------------------------------|

See no future, pay no rent
[F] [G]  
 
 e|1----1- 1----1- 1------ 1----3-|3------ ------- ------- -------|
 B|1----1--1----1--1-------1----3-|3------------------------------|
 G|2----2--2----2--2-------2----4-|4------------------------------|
 D|3----3--3----3--3-------3----5-|5------------------------------|
 A|3----3--3----3--3-------3----5-|5------------------------------|
 E|1----1--1----1--1-------1----3-|3------------------------------|

All the money's gone nowhere to go
[C7]  
 
 e|0----0- -----0- -----0- 0------|0----0- 0------ 0----0- 0------|
 B|1----1--x----1-------1--1------|1----1--1----x--1----1--1------|
 G|3----3--x----3-------3--3------|3----3--3----x--3----3--3------|
 D|2----2--x----2-------2--2------|2----2--2----x--2----2--2------|
 A|3----3-------3-------3--3------|3----3--3-------3----3--3------|
 E|-------------------------------|-------------------------------| 

[C] [E]  
 
 e|0------ ------- ------- 0---0--|0------ 0------ 0------ -------|
 B|1-----------------------1---1--|0-------0-------0--------------|
 G|0-----------------------0---0--|1-------1-------1--------------|
 D|2-----------------------2---2--|2-------2-------2--------------|
 A|3-----------------------3---3--|2-------2-------2--------------|
 E|3-----------------------3---3--|0-------0-------0--------------|

Any jobber got the sack
[Am] [C7]  
 
 e|0------ 0------ ------- -------|0------ 0------ ------- 0------|
 B|1-------1----------------------|1-------1---------------1------|
 G|2-------2----------------------|3-------3---------------3------|
 D|2-------2----------------------|2-------2---------------2------|
 A|0-------0----------------------|3-------3---------------3------|
 E|-------------------------------|-------------------------------|

Monday morning turning back
[F] [G]  
 
 e|1------ 1------ 1----1- 1----3-|3----3- 3------ 3------ 3----3-|
 B|1-------1-------1----1--1----3-|3----3--3-------3-------3----3-|
 G|2-------2-------2----2--2----4-|4----4--4-------4-------4----4-|
 D|3-------3-------3----3--3----5-|5----5--5-------5-------5----5-|
 A|3-------3-------3----3--3----5-|5----5--5-------5-------5----5-|
 E|1-------1-------1----1--1----3-|3----3--3-------3-------3----3-|

Yellow lorry slow nowhere to go
[C]  
 
 e|0----0- 0----0- 0------ 0------|0----0- 0------ 0----0- 0------|
 B|1----1--1----1--1-------1------|1----1--1-------1----1--1------|
 G|0----0--0----0--0-------0------|0----0--0-------0----0--0------|
 D|2----2--2----2--2-------2------|2----2--2-------2----2--2------|
 A|3----3--3----3--3-------3------|3----3--3-------3----3--3------|
 E|3----3--3----3--3-------3------|3----3--3-------3----3--3------|

But oh,
[Bb] [F]  
 
 e|1------ ----1-- ------- -------|1------ ----1-- ------- -------|
 B|3-----------3------------------|1-----------1------------------|
 G|3-----------3------------------|2-----------2------------------|
 D|3-----------3------------------|3-----------3------------------|
 A|1-----------1------------------|3-----------3------------------|
 E|-------------------------------|1-----------1------------------|

that magic feeling nowhere to go
 
 e|----10- ------- ------- -------|----8-- ------- ------- -------|
 B|--------11---------------------|--------10---------------------|
 G|------------10-----------------|------------10-----------------|
 D|-------------------------------|-------------------------------|
 A|-------------------------------|-------------------------------|
 E|-------------------------------|-------------------------------|

[C] [Bb]  
 
 e|0------ ----0-- ------- -------|1------ ----1-- ------- -------|
 B|1-----------1------------------|3-----------3------------------|
 G|0-----------0------------------|3-----------3------------------|
 D|2-----------2------------------|3-----------3------------------|
 A|3-----------3------------------|1-----------1------------------|
 E|3-----------3------------------|-------------------------------|

Oh, that magic feeling
 
 e|----8-- ------- ------- -------|----10- ------- ------- -------|
 B|----8--------------------------|--------11---------------------|
 G|7/9----------------------------|10----------10-----------------|
 D|-------------------------------|-------------------------------|
 A|-------------------------------|-------------------------------|
 E|-------------------------------|-------------------------------|

[F] [C]  
 
 e|1------ ----1-- ------- -------|0------ ----0-- ------- -------|
 B|1-----------1------------------|1-----------1------------------|
 G|2-----------2------------------|0-----------0------------------|
 D|3-----------3------------------|2-----------2------------------|
 A|3-----------3------------------|3-----------3------------------|
 E|1-----------1------------------|3-----------3------------------| 

nowhere to go nowhere to go
 
 e|----8-- ------- ------- -------|----8-- ------- ------- -------|
 B|--------10---------------------|----8--------------------------|
 G|------------10-----------------|7/9----------------------------|
 D|-------------------------------|-------------------------------|
 A|-------------------------------|-------------------------------|
 E|-------------------------------|-------------------------------|

[Bb] [F]  
 
 e|-------10---6-- ------- 6------|8---8-- ----8-- ------- 8------|
 B|--------6---6-----------6------10--10------10----------10------|
 G|--------7---7-----------7------10--10------10----------10------|
 D|--------6---8-----------8------10--10------10----------10------|
 A|--------8---8-----------8------|8---8-------8-----------8------|
 E|--------6---6-----------6------|-------------------------------|
 e|--13--- 13----10----10- --10---|--12--- 12-----8----8-- ---8---|
 B|----15----15----11----11----11-|----13----13----10---10-----10-|
 G|15----15----15----10----10-----|10----10----10----10----10-----|
 D|-------------------------------|-------------------------------|
 A|-------------------------------|-------------------------------|
 E|-------------------------------|-------------------------------|
 e|------- ------- ------- -------|------- ------- ------- -------|
 B|-------------------------------|-------------------------------|
 G|-------------------------------|-------------------------------|
 D|-------------------------------|------------------------10--10-|
 A|-----------8/10-----8----------|--------8/10-8----8H10/12------|
 E|-----------------------8B10R8-6|5------------------------------|

[C] [Bb]  
 
 e|8---8-- ----8-- ------- 8------|----6-- ----6-- ------- 6------|
 B|8---8-------8-----------8------|----6-------6-----------6------|
 G|9---9-------9-----------9------|----7-------7-----------7------|
 D10--10------10----------10------|----8-------8-----------8------|
 A10--10------10----------10------|----8-------8-----------8------|
 E|8---8-------8-----------8------|----6-------6-----------6------|
 e|--8---- 8------ ------- -------|--13--- 13----10----10- --10---|
 B|----8--------------------------|----15----15----11----11----11-|
 G/9-----9------------------------|15----15----15----10----10-----|
 D|-------------------------------|-------------------------------|
 A|-------------------------------|-------------------------------|
 E|-------------------------------|-------------------------------|
 e|------- ------- ------- -------|------- ------- ------- -------|
 B|-------------------------------|-------------------------------|
 G|-------------------------------|-------------------------------|
 D|10-----------------------------|-------------------------------|
 A|------------------------12P10--|---8/10-8----------------------|
 E|----------------------------12\|6---------(8)108108108--6---5--|

B RB RB R
( Tab from: http://www.guitartabs.cc/tabs/b/beatles/you_never_give_me_your_money_tab.html )
[F] [C]  
 
 e|8---8-- ----8-- ------- 8------|8---8-- ----8-- ------- 8------|
 B10--10------10----------10------|8---8-------8-----------8------|
 G10--10------10----------10------|9---9-------9-----------9------|
 D10--10------10----------10------10--10------10----------10------|
 A|8---8-------8-----------8------10--10------10----------10------|
 E|-------------------------------|8---8-------8-----------8------|
 e|--12--- 12-----8-----8- ---8---|--8---- 8------ ------- -------|
 B|----13----13----10----10----10-|----8--------------------------|
 G|10----10----10----10----10-----/9-----9------------------------|
 D|-------------------------------|-------------------------------|
 A|-------------------------------|-------------------------------|
 E|-------------------------------|-------------------------------|
 e|------- ------- ------- -------|------- ------- ------- -------|
 B|-------------------------------|-------------------------------|
 G|-------------------------------|-------------------------------|
 D|-------------10------10------10|12/14-10-----------------------|
 A|8/10-8----/12----10H12---10H12-|-------------------------------|
 E|--------8----------------------|-------------------------------|

[Bb] [F]  
 
 e|---10-- 6------ 6---6-- ----6--|----8-- 8------ 8---8-- ----8--|
 B|----6---6-------6---6-------6--|---10--10------10--10------10--|
 G|----7---7-------7---7-------7--|---10--10------10--10------10--|
 D|----6---8-------8---8-------8--|---10--10------10--10------10--|
 A|----8---8-------8---8-------8--|----8---8-------8---8-------8--|
 E|----6---6-------6---6-------6--|-------------------------------|
 e|--13--- 13----10----10- --10---|--12--- 12-----8----8-- ---8---|
 B|----15----15----11----11----11-|----13----13----10---10-----10-|
 G|15----15----15----10----10-----|10----10----10----10----10-----|
 D|-------------------------------|-------------------------------|
 A|-------------------------------|-------------------------------|
 E|-------------------------------|-------------------------------|
 e|------- ------- ------- -------|------- ------- ------- -------|
 B|-------------------------------|-------------------------------|
 G|-------------------------------|-------------------------------|
 D|-------------------------------|-----------------10----10---12-B
 A|---8/10-8----------------------|--8/10\8---8H10/12-10H12-------|
 E|6-----------8B10--R-8---6------|5------------------------------|

[C] [D]  
 
 e|------- 8-----8 ----8-- ----8--|10----- 10----10----10- ----10-|
 B|--------8-----8-----8-------8--|10------10----10----10------10-|
 G|--------9-----9-----9-------9--|11------11----11----11------11-|
 D|-------10----10----10------10--|10------10----10----10------10-|
 A|-------10----10----10------10--|12------12----12----12------12-|
 E|--------8-----8-----8-------8--|10------10----10----10------10-|
 e|--8---- 8------ ------- -------|------- ------- ------- -------|
 B|----8--------------------------|-------------------------------|
 G/9-----9------------------------|-------------------------------|
 D|-------------------------------|-------------------------------|
 A|-------------------------------|-------------------------------|
 E|-------------------------------|-------------------------------|
 e|------- ------- ------- -------|------- ------- ------- -------|
 B|------------------------13-----|-------------------------------|
 G|-------------------------------|12B14-~------------------------|
 D|14-----------------------------|-------------------------------|
 A|-------------------------------|-------------------------------|
 E|-------------------------------|-------------------------------|

[D#] [G] [C] [A]  
 
 e|6------ 6------ 3------ 3------|3------ ----5-- ------- -------|
 B|8-------8-------3-------3------|5-----------5------------------|
 G|8-------8-------4-------4------|5-----------6------------------|
 D|8-------8-------5-------5------|5-----------7------------------|
 A|6-------6-------5-------5------|3-----------7------------------|
 E|----------------3-------3------|------------5------------------|
 e|------- ------- ------- -------|------- -----9- ------- -------|
 B|-------------------------------|--8---8-111088-----------------|
 G|10B12--121081012-121212-12-108-/9---------P-P9-----------------|
 D|---------R----B------------R---|-------------------------------|
 A|-------------------------------|-------------------------------|
 E|-------------------------------|-------------------------------|

[D#] [C] [F#] [D#]  
 
 e|6------ ----8-- ----8-8 8------|-9----- ----11- ------- -------|
 B|8-----------8-------8-8-8------|10----------11-----------------|
 G|8-----------9-------9-9-9------|10----------12-----------------|
 D|8----------10------101010------|10----------13-----------------|
 A|6----------10------101010------|-9----------13-----------------|
 E|------------8-------8-8-8------|------------11-----------------|
 e|------- ------12------- -------|------- ------15------- -------|
 B|--11-11-14131111---------------|--14-14-17161414---------------|
 G/12--------P-P-12---------------/15------------15---------------|
 D|-------------------------------|-------------------------------|
 A|-------------------------------|-------------------------------|
 E|-------------------------------|-------------------------------|

[A] [F#] [G] [G#]  
 
 e|12----- ----9-- ----10- ----11-|
 B|14---------11-------12------13-|
 G|14---------11-------12------13-|
 D|14---------11-------12------13-|
 A|12----------9-------10------11-|
 E|-------------------------------|
 e|------- ------18----19- ----20-|
 B|--17-17-20191717----18------19-|
 G/18--------P-P-18----19------20-|
 D|-------------------------------|
 A|-------------------------------|
 E|-------------------------------|

[A5] [A6] [A5] [A6] [A5] [B5] [B6] [B5]  
 
 e|------- ------- ------- -------|------- ------- ------- -------|
 B|-------------------------------|-------------------------------|
 G|-------------------------------|-------------------------------|
 D|-------------------------------|-------------------------------|
 A|7---7---9-----7---7---7-9---7--|9---9---9-----9-9---9---9H119--|
 E|5---5---5-----5---5---5-5---5--|7---7---7-----7-7---7---7---7--|

One sweet dream
 
 e|12----- ------- ------- -------|------- ------- ------- -------|
 B|14-----------------------------|-------------------------------|
 G|14-----------------------------|-------------------------------|
 D|14-----------------------------|-------------------------------|
 A|12-----------------------------|-------------------------------|
 E|-------------------------------|-------------------------------|
 e|21----- ------- ------- -------|------- ------- ------- -------|
 B|20-----------------------------|-------------------------------|
 G|21-----------------------------|-------------------------------|
 D|-------------------------------|------------------9-9---9H11P9-|
 A|-------------------------------|--6-6H9-9---9-9H11-------------|
 E|-------------------------------|7------------------------------|

[C5] [E] [A5] [A6] [A7] [A6] [A7]  
 
 e|------- ------- 7-7---7 7---7--|------- ------- ------- -------|
 B|----------------9-9---9-9---9--|----------------------------5-\|
 G|----------------9-9---9-9---9--|----------------------------6-\|
 D|----------------9-9---9-9---9--|--------------5---5---------5-\|
 A|10--10--12--10--7-7---7-7---7--|7---7---9---9-7---7---7-9---7--|
 E|-8---8---8---8-----------------|5---5---5---5-5---5---5-5---5--|

Pick bags and get
up the in the limousine
 
 e|------- ------- ------- -------|------- ------- ------- -------|
 B|-------------------------------|-------------------------------|
 G|-------------------------------|-------------------------------|
 D|-------------------------------|9B11--9P7-7-7---7P5------------|
 A|-------------------------------|--------------------7----------|
 E|-------------------------------|-------------------------------|

[Dm] [G] [D7] [G]  
 
 e|1------ ----3-- ------- -------|5------ ----3-- ------- -------|
 B|3-----------0------------------|3-----------0------------------|
 G|2-----------4------------------|5-----------4------------------|
 D|0-----------0------------------|0-----------0------------------|
 A|-------------------------------|-------------------------------|
 E|-------------------------------|-------------------------------|

Soon we'll from here Step and wipe that tear away
be away on the gas
[A5] [A6] [A5] [B5]  
 
 e|------- ------- ------- -------|------- -------|
 B|-------------------------------|---------------|
 G|-------------------------------|---------------|
 D|-------------------------------|---------------|
 A|7---7---9---7-7---7---7-7------|9--------------|
 E|5---5---5---5-5---5---5-5------|7--------------|

One sweet dream came true
 
 e|------- ------- ------- -------|------- -------|
 B|-------------------------------|---------------|
 G|-------------------------------|---------------|
 D|----7-7-7-7-7---7-7---7-7-7-9B10R9-7-7--7------|
 A|-------------------------------|---------------|
 E|-------------------------------|---------------|

[C] [Cmaj7] [A]  
 
 e|------- ------- ------- -------|------- ----5-- ------- -------|
 B|------------------------0------|------------2------------------|
 G|--------0-----------0-------0--|--------2----------------------|
 D|----2-----------0--------------|----2--------------------------|
 A|3-----------2------------------|0------------------------------|
 E|-------------------------------|-------------------------------|

today came true
[C] [Cmaj7] [A]  
 
 e|------- ------- ------- -------|------- ----5-- ------- -------|
 B|------------------------0------|------------2------------------|
 G|--------0-----------0-------0--|--------2----------------------|
 D|----2-----------0--------------|----2--------------------------|
 A|3-----------2------------------|0------------------------------|
 E|-------------------------------|-------------------------------|

today came true
[C] [Cmaj7] [A]  
 
 e|------- ------- ------- -------|------- ----5-- ------- -------|
 B|------------------------0------|------------2------------------|
 G|--------0-----------0-------0--|--------2----------------------|
 D|----2-----------0--------------|----2--------------------------|
 A|3-----------2------------------|0------------------------------|
 E|-------------------------------|-------------------------------|

today, yes it did
[C] [Cmaj7] [A]  
 
 e|------- ------- ------- -------|------- ----5-- ------- -------|
 B|------------------------0------|------------2------------------|
 G|--------0-----------0-------0--|--------2----------------------|
 D|----2-----------0--------------|----2--------------------------|
 A|3-----------2------------------|0------------------------------|
 E|-------------------------------|-------------------------------|
 e|------- ------- ------- -------|------- ------- ------- -------|
 B/10-----------------------------|----8-------10-----------------|
 G|-------------------------------|-------------------------------|
 D|-------------------------------|-------------------------------|
 A|-------------------------------|-------------------------------|
 E|-------------------------------|-------------------------------|

[C] [Cmaj7] [A]  
 
 e|------- ------- ------- -------|------- ----5-- ------- -------|
 B|------------------------0------|------------2------------------|
 G|--------0-----------0-------0--|--------2----------------------|
 D|----2-----------0--------------|----2--------------------------|
 A|3-----------2------------------|0------------------------------|
 E|-------------------------------|-------------------------------| 

One two three All good children go to Heaven
four five six seven,
[C] [Cmaj7] [A]  
 
 e|------- ------- ------- -------|------- ----5-- ------- -------|
 B|------------------------0------|------------2------------------|
 G|--------0-----------0-------0--|--------2----------------------|
 D|----2-----------0--------------|----2--------------------------|
 A|3-----------2------------------|0------------------------------|
 E|-------------------------------|-------------------------------|

One two three All good children go to Heaven
four five six seven,
 
 e|------- ------- ------- -------|------- ------- ------- -------|
 B|-------------------------------|------------8B10---------------|
 G|--8P7P5-7---5B6----------5H7H8-|9---9---9----------------------|
 D|----------------7---5H6H7------|-------------------------------|
 A|-------------------------------|-------------------------------|
 E|-------------------------------|-------------------------------|

[C] [Cmaj7] [A]  
 
 e|------- ------- ------- -------|------- ----5-- ------- -------|
 B|------------------------0------|------------2------------------|
 G|--------0-----------0-------0--|--------2----------------------|
 D|----2-----------0--------------|----2--------------------------|
 A|3-----------2------------------|0------------------------------|
 E|-------------------------------|-------------------------------|

One two three All good children go to Heaven
four five six seven,
 
 e|------- ------- ------- -------|------- ------- ------- -------|
 B|--10-10-10R8-8B10-1010--10R8---|-------------------------------|
 G|------------9---------------9-8|7P5H7B9-5B6--------------------|
 D|-------------------------------|------------7------------------|
 A|-------------------------------|-------------------------------|
 E|-------------------------------|-------------------------------|

[C] [Cmaj7] [A]  
 
 e|------- ------- ------- -------|------- ----5-- ------- -------|
 B|------------------------0------|------------2------------------|
 G|--------0-----------0-------0--|--------2----------------------|
 D|----2-----------0--------------|----2--------------------------|
 A|3-----------2------------------|0------------------------------|
 E|-------------------------------|-------------------------------|

One two three All good children go to Heaven
four five six seven,
 
 e|------- ------- ------- -------|------- ------- ------- -------|
 B|-------------------------------|-------------------------------|
 G|-------------------------------|---------------------------12-/|
 D|-------------------------------|-------------------------------|
 A|-------------------------------|-------------------------------|
 E|-------------------------------|-------------------------------|

[C] [Cmaj7] [A]  
 
 e|------- ------- ------- -------|------- ----5-- ------- -------|
 B|------------------------0------|------------2------------------|
 G|--------0-----------0-------0--|--------2----------------------|
 D|----2-----------0--------------|----2--------------------------|
 A|3-----------2------------------|0------------------------------|
 E|-------------------------------|-------------------------------|

One two three All good children go to Heaven
four five six seven,
 
 e|------- ------- ------- -------|------- ----15B17------ -------|
 B|--13-13-15P13--B15R1315B17R1513|----13--13---------------------|
 G|14-----------------------------|14-----------------------------|
 D|-------------------------------|-------------------------------|
 A|-------------------------------|-------------------------------|
 E|-------------------------------|-------------------------------|

[C] [Cmaj7] [A]  
 
 e|------- ------- ------- -------|------- ----5-- ------- -------|
 B|------------------------0------|------------2------------------|
 G|--------0-----------0-------0--|--------2----------------------|
 D|----2-----------0--------------|----2--------------------------|
 A|3-----------2------------------|0------------------------------|
 E|-------------------------------|-------------------------------|

One two three All good children go to Heaven
four five six seven,
 
 e|15B1717 17--15- 12----- -------|------- ------- ------- -------|
 B|--------------------15--13B14--|-------------------------------|
 G|----------------------------14-|14--12------14-----------------|
 D|-------------------------------|-------------------------------|
 A|-------------------------------|-------------------------------|
 E|-------------------------------|-------------------------------|

.............................Fade..............................
[C] [Cmaj7] [A]  
 
 e|------- ------- ------- -------|------- ----5-- ------- -------|
 B|------------------------0------|------------2------------------|
 G|--------0-----------0-------0--|--------2----------------------|
 D|----2-----------0--------------|----2--------------------------|
 A|3-----------2------------------|0------------------------------|
 E|-------------------------------|-------------------------------|

One two three All good children go to Heaven
four five six seven,
...............................................................
[C] [Cmaj7] [A]  
 
 e|------- ------- ------- -------|------- ----5-- ------- -------|
 B|------------------------0------|------------2------------------|
 G|--------0-----------0-------0--|--------2----------------------|
 D|----2-----------0--------------|----2--------------------------|
 A|3-----------2------------------|0------------------------------|
 E|-------------------------------|-------------------------------|

One two three All good children go to Heaven
four five six seven,
...............................................................
[C] [Cmaj7] [A]  
 
 e|------- ------- ------- -------|------- ----5-- ------- -------|
 B|------------------------0------|------------2------------------|
 G|--------0-----------0-------0--|--------2----------------------|
 D|----2-----------0--------------|----2--------------------------|
 A|3-----------2------------------|0------------------------------|
 E|-------------------------------|-------------------------------|

One two three All good children go to Heaven
four five six seven,
...............................................................
[C] [Cmaj7] [A]  
 
 e|------- ------- ------- -------|------- ----5-- ------- -------|
 B|------------------------0------|------------2------------------|
 G|--------0-----------0-------0--|--------2----------------------|
 D|----2-----------0--------------|----2--------------------------|
 A|3-----------2------------------|0------------------------------|
 E|-------------------------------|-------------------------------|

One two three All good children go to Heaven
four five six seven,
...............................................................
B Bend
R Release
/ Slide up
\ Slide down
H Hammer-on
P Pull-off
~ Vibrato
+ Harmonic
x Mute note
. Play note like a dot in standard notation
^ Ties two notes together
(. Pause

Important: The song above is NOT stored on the Chordie server. The original song is hosted at www.guitartabs.cc. Chordie works as a search engine and provides on-the-fly formatting. Chordie does not index songs against artists'/composers' will. To remove this song please click here.

Text color:
Chord color:
Chord grids: 
Font size:    
Page size: 

A A5 A6 A7 Am Am7 B5 B6 Bb Bm7 C C5 C7 Cmaj7 D D# D7 Dm Dm7 E E7 E7sus4 F F# Fmaj7 G G# G7
Rate #13 of 14 versions

Login - add to songbook

SHARE PAGE  




You need to log in to post comments