Guitar Tabs, Chords and Lyrics
Server problems seems to be fixed. Chordie has been experiencing problems with songs disappearing. These issues now seems to be fixed, but still verifying the fix. If you find anything strange, please email admin@chordie.com.


Jane Became Insane  Beatsteaks

Howdi, hier die erste Gitarrenspur von dem ultimativem Song der Beatsteaks, Jane became
Hat noch keiner getabt, deshalb dachte ich, dass ichs ma versuch. Also ist mein erster
deshalb nicht zu hart mit den Kommentaren. War sauviel Arbeit... Also dann haut ma in
Saiten... Und Rating nicht vergessen...
Tabbed by DANTONE
Jane became insane
Beatsteaks
PM
Q Q Q Q E E E E E E E E E E E E E E E E
 
 E||--x----x----x----x----|--2--2-----3--3--3--------|-----------4--4--4-----5--|
 B||--x----x----x----x----|--2--2-----3--3--3--------|-----------4--4--4-----5--|
 G||--x----x----x----x----|--3--3-----4--4--4-----1--|--1--1-----6--6--6-----7--|
 D||----------------------|--4--4-----5--5--5-----2--|--2--2-----6--6--6-----7--|
 A||----------------------|--4--4-----5--5--5-----2--|--2--2-----4--4--4-----5--|
 E||----------------------|--2--2-----3--3--3--------|-----------4--4--4-----5--|

[E] [E] [E] [E] [E] [E] [E] [E] [E] [E] [E] [E] [E] [E] [E] [E]  
 
 --5--5-----2--2--2-----3--|--3--3-----------------4--|
 --5--5-----2--2--2-----3--|--3--3-----------------4--|
 --7--7-----3--3--3-----4--|--4--4-----1--1--1-----6--|
 --7--7-----4--4--4-----5--|--5--5-----2--2--2-----6--|
 --5--5-----4--4--4-----5--|--5--5-----2--2--2-----4--|
 --5--5-----2--2--2-----3--|--3--3-----------------4--|

[E] [E] [E] [E] [E] [E] [E] [E] [E] [E] [E] [E] [E] [E] [E] [E]  
 
 --4--4-----5--5--5-----2--|--2--2-----3--3--3--------|
 --4--4-----5--5--5-----2--|--2--2-----3--3--3--------|
 --6--6-----7--7--7-----3--|--3--3-----4--4--4-----1--|
 --6--6-----7--7--7-----4--|--4--4-----5--5--5-----2--|
 --4--4-----5--5--5-----4--|--4--4-----5--5--5-----2--|
 --4--4-----5--5--5-----2--|--2--2-----3--3--3--------|

[E] [E] [E] [E] [E] [E] [E] [E] [E] [E] [E] [E] [E] [E] [E] [E]  
 
 -----------4--4--4-----5--|--5--5-----2--2--2-----3--|
 -----------4--4--4-----5--|--5--5-----2--2--2-----3--|
 --1--1-----6--6--6-----7--|--7--7-----3--3--3-----4--|
 --2--2-----6--6--6-----7--|--7--7-----4--4--4-----5--|
 --2--2-----4--4--4-----5--|--5--5-----4--4--4-----5--|
 -----------4--4--4-----5--|--5--5-----2--2--2-----3--|

[E] [E] [E] [E] [E] [E] [E] [E] [E] [E] [E] [E] [E] [E] [E] [E]  
 
 --3--3-----------------4--|--4--4-----5--5--5-----2--|
 --3--3-----------------4--|--4--4-----5--5--5-----2--|
 --4--4-----1--1--1-----6--|--6--6-----7--7--7-----3--|
 --5--5-----2--2--2-----6--|--6--6-----7--7--7-----4--|
 --5--5-----2--2--2-----4--|--4--4-----5--5--5-----4--|
 --3--3-----------------4--|--4--4-----5--5--5-----2--|

[E] [E] [E] [E] [E] [E] [E] [E] [E] [E] [E] [E] [E] [E] [E] [E]  
 
 --2--2-----3--3--3--------|-----------4--4--4-----5--|
 --2--2-----3--3--3--------|-----------4--4--4-----5--|
 --3--3-----4--4--4-----1--|--1--1-----6--6--6-----7--|
 --4--4-----5--5--5-----2--|--2--2-----6--6--6-----7--|
 --4--4-----5--5--5-----2--|--2--2-----4--4--4-----5--|
 --2--2-----3--3--3--------|-----------4--4--4-----5--|

[E] [E] [E] [E] [E] [E] [E] [E] [E] [E] [E] [E] [E] [E] [E] [E]  
 
 --5--5-----2--2--2-----3--|--3--3-----------------4--|
 --5--5-----2--2--2-----3--|--3--3-----------------4--|
 --7--7-----3--3--3-----4--|--4--4-----1--1--1-----6--|
 --7--7-----4--4--4-----5--|--5--5-----2--2--2-----6--|
 --5--5-----4--4--4-----5--|--5--5-----2--2--2-----4--|
 --5--5-----2--2--2-----3--|--3--3-----------------4--|

[E] [E] [E] [E] [E] [E] [E] [E] [E] [E] [E] [E] [E] [E] [E] [E]  
 
 --4--4-----5--5--5-----2--|--2--2-----3--3--3--------|
 --4--4-----5--5--5-----2--|--2--2-----3--3--3--------|
 --6--6-----7--7--7-----3--|--3--3-----4--4--4-----1--|
 --6--6-----7--7--7-----4--|--4--4-----5--5--5-----2--|
 --4--4-----5--5--5-----4--|--4--4-----5--5--5-----2--|
 --4--4-----5--5--5-----2--|--2--2-----3--3--3--------|

[E] [E] [E] [E] [E] [E] [E] [E] [E] [E] [E] [E] [E] [E] [E] [E]  
 
 -----------4--4--4-----5--|--5--5-----2--2--2-----3--|
 -----------4--4--4-----5--|--5--5-----2--2--2-----3--|
 --1--1-----6--6--6-----7--|--7--7-----3--3--3-----4--|
 --2--2-----6--6--6-----7--|--7--7-----4--4--4-----5--|
 --2--2-----4--4--4-----5--|--5--5-----4--4--4-----5--|
 -----------4--4--4-----5--|--5--5-----2--2--2-----3--|

[E] [E] [E] [E] [E] [E] [E] [E] [E] [E] [E] [E] [E] [E] [E] [E]  
 
 --3--3-----------------4--|--4--4-----5--5--5-----2--|
 --3--3-----------------4--|--4--4-----5--5--5-----2--|
 --4--4-----1--1--1-----6--|--6--6-----7--7--7-----3--|
 --5--5-----2--2--2-----6--|--6--6-----7--7--7-----4--|
 --5--5-----2--2--2-----4--|--4--4-----5--5--5-----4--|
 --3--3-----------------4--|--4--4-----5--5--5-----2--|

[E] [E] [E] [E] [E] [E] [E] [E] [E] [E] [E] [E] [E] [E] [E] [E]  
 
 --2--2-----3--3--3--------|-----------4--4--4-----5--|
 --2--2-----3--3--3--------|-----------4--4--4-----5--|
 --3--3-----4--4--4-----1--|--1--1-----6--6--6-----7--|
 --4--4-----5--5--5-----2--|--2--2-----6--6--6-----7--|
 --4--4-----5--5--5-----2--|--2--2-----4--4--4-----5--|
 --2--2-----3--3--3--------|-----------4--4--4-----5--|

[E] [E] [E] [E] [E] [E] [E] [E] [E] [E] [E] [E] [E] [E] [E] [E]  
 
 --5--5-----2--2--2-----3--|--3--3-----------------4--|
 --5--5-----2--2--2-----3--|--3--3-----------------4--|
 --7--7-----3--3--3-----4--|--4--4-----1--1--1-----6--|
 --7--7-----4--4--4-----5--|--5--5-----2--2--2-----6--|
 --5--5-----4--4--4-----5--|--5--5-----2--2--2-----4--|
 --5--5-----2--2--2-----3--|--3--3-----------------4--|

[E] [E] [E] [E] [E] [E] [E] [E] [E] [E] [E] [E] [E] [E] [E] [E]  
 
 --4--4-----5--5--5-----2--|--2--2-----3--3--3--------|
 --4--4-----5--5--5-----2--|--2--2-----3--3--3--------|
 --6--6-----7--7--7-----3--|--3--3-----4--4--4-----1--|
 --6--6-----7--7--7-----4--|--4--4-----5--5--5-----2--|
 --4--4-----5--5--5-----4--|--4--4-----5--5--5-----2--|
 --4--4-----5--5--5-----2--|--2--2-----3--3--3--------|

[E] [E] [E] [E] [E] [E] [E] [E] [E] [E] [E] [E] [E] [E] [E] [E]  
 
 -----------4--4--4-----5--|--5--5-----2--2--2-----3--|
 -----------4--4--4-----5--|--5--5-----2--2--2-----3--|
 --1--1-----6--6--6-----7--|--7--7-----3--3--3-----4--|
 --2--2-----6--6--6-----7--|--7--7-----4--4--4-----5--|
 --2--2-----4--4--4-----5--|--5--5-----4--4--4-----5--|
 -----------4--4--4-----5--|--5--5-----2--2--2-----3--|

[E] [E] [E] [E] [E] [E] [E] [E] [E] [E] [E] [E] [E] [E] [E] [E]  
 
 --3--3-----------------4--|--4--4-----5--5--5-----2--|
 --3--3-----------------4--|--4--4-----5--5--5-----2--|
 --4--4-----1--1--1-----6--|--6--6-----7--7--7-----3--|
 --5--5-----2--2--2-----6--|--6--6-----7--7--7-----4--|
 --5--5-----2--2--2-----4--|--4--4-----5--5--5-----4--|
 --3--3-----------------4--|--4--4-----5--5--5-----2--|

[E] [E] [E] [E] [E] [E] [E] [E] [E] [E] [E] [E] [E] [E] [E] [E]  
 
 --2--2-----3--3--3--------|-----------4--4--4-----5--|
 --2--2-----3--3--3--------|-----------4--4--4-----5--|
 --3--3-----4--4--4-----1--|--1--1-----6--6--6-----7--|
 --4--4-----5--5--5-----2--|--2--2-----6--6--6-----7--|
 --4--4-----5--5--5-----2--|--2--2-----4--4--4-----5--|
 --2--2-----3--3--3--------|-----------4--4--4-----5--|

[E] [E] [E] [E] [E] [E] [E] [E] [E] [E] [E] [E] [E] [E] [E] [E]  
 
 --5--5-----2--2--2-----3--|--3--3-----------------4--|
 --5--5-----2--2--2-----3--|--3--3-----------------4--|
 --7--7-----3--3--3-----4--|--4--4-----1--1--1-----6--|
 --7--7-----4--4--4-----5--|--5--5-----2--2--2-----6--|
 --5--5-----4--4--4-----5--|--5--5-----2--2--2-----4--|
 --5--5-----2--2--2-----3--|--3--3-----------------4--|

[E] [E] [E] [E] [E] [E] [E] [E] [E] [E] [E] [E] [E] [E] [E] [E]  
 
 --4--4--4--4--4--4--4--4--|--4--4--4--4--4--4--4--4--|
 --4--4--4--4--4--4--4--4--|--4--4--4--4--4--4--4--4--|
 --6--6--6--6--6--6--6--6--|--6--6--6--6--6--6--6--6--|
 --6--6--6--6--6--6--6--6--|--6--6--6--6--6--6--6--6--|
 --4--4--4--4--4--4--4--4--|--4--4--4--4--4--4--4--4--|
 --4--4--4--4--4--4--4--4--|--4--4--4--4--4--4--4--4--|

E E E E E E E E W E S E. E S E. E S S
 
 --4--4--4--4--4--4--4--4--|--4----------------||------------2--2-----4--4---|
 --4--4--4--4--4--4--4--4--|--4----------------||------------4--4-----4--4---|
 --6--6--6--6--6--6--6--6--|--6----------------||*--1--1-----4--4-----6--6---|
 --6--6--6--6--6--6--6--6--|--6----------------||*--2--2-----4--4-----6--6---|
 --4--4--4--4--4--4--4--4--|--4----------------||---2--2-----2--2-----4--4---|
 --4--4--4--4--4--4--4--4--|--4----------------||------------2--2-----4--4---|

S. E S E. E S 4x E E E E E E E E E E E E E E E E
 
 -----4--4-------------||--2--2-----3--3--3--------|-----------4--4--4-----5--|
 -----4--4-----2--2----||--2--2-----3--3--3--------|-----------4--4--4-----5--|
 -----4--4-----2--2---*||--3--3-----4--4--4-----1--|--1--1-----6--6--6-----7--|
 -----6--6-----2--2---*||--4--4-----5--5--5-----2--|--2--2-----6--6--6-----7--|
 -----6--6-------------||--4--4-----5--5--5-----2--|--2--2-----4--4--4-----5--|
 -----4--4-------------||--2--2-----3--3--3--------|-----------4--4--4-----5--|

[E] [E] [E] [E] [E] [E] [E] [E] [E] [E] [E] [E] [E] [E] [E] [E]  
 
 --5--5-----2--2--2-----3--|--3--3-----------------4--|
 --5--5-----2--2--2-----3--|--3--3-----------------4--|
 --7--7-----3--3--3-----4--|--4--4-----1--1--1-----6--|
 --7--7-----4--4--4-----5--|--5--5-----2--2--2-----6--|
 --5--5-----4--4--4-----5--|--5--5-----2--2--2-----4--|
 --5--5-----2--2--2-----3--|--3--3-----------------4--|

[E] [E] [E] [E] [E] [E] [E] [E] [E] [E] [E] [E] [E] [E] [E] [E]  
 
 --4--4-----5--5--5-----2--|--2--2-----3--3--3--------|
 --4--4-----5--5--5-----2--|--2--2-----3--3--3--------|
 --6--6-----7--7--7-----3--|--3--3-----4--4--4-----1--|
 --6--6-----7--7--7-----4--|--4--4-----5--5--5-----2--|
 --4--4-----5--5--5-----4--|--4--4-----5--5--5-----2--|
 --4--4-----5--5--5-----2--|--2--2-----3--3--3--------|

[E] [E] [E] [E] [E] [E] [E] [E] [E] [E] [E] [E] [E] [E] [E] [E]  
 
 -----------4--4--4-----5--|--5--5-----2--2--2-----3--|
 -----------4--4--4-----5--|--5--5-----2--2--2-----3--|
 --1--1-----6--6--6-----7--|--7--7-----3--3--3-----4--|
 --2--2-----6--6--6-----7--|--7--7-----4--4--4-----5--|
 --2--2-----4--4--4-----5--|--5--5-----4--4--4-----5--|
 -----------4--4--4-----5--|--5--5-----2--2--2-----3--|

[E] [E] [E] [E] [E] [E] [E] [E] [E] [E] [E] [E] [E] [E] [E] [E]  
 
 --3--3-----------------4--|--4--4-----5--5--5-----2--|
 --3--3-----------------4--|--4--4-----5--5--5-----2--|
 --4--4-----1--1--1-----6--|--6--6-----7--7--7-----3--|
 --5--5-----2--2--2-----6--|--6--6-----7--7--7-----4--|
 --5--5-----2--2--2-----4--|--4--4-----5--5--5-----4--|
 --3--3-----------------4--|--4--4-----5--5--5-----2--|

[E] [E] [E] [E] [E] [E] [E] [E] [E] [E] [E] [E] [E] [E] [E] [E]  
 
 --2--2-----3--3--3--------|-----------4--4--4-----5--|
 --2--2-----3--3--3--------|-----------4--4--4-----5--|
 --3--3-----4--4--4-----1--|--1--1-----6--6--6-----7--|
 --4--4-----5--5--5-----2--|--2--2-----6--6--6-----7--|
 --4--4-----5--5--5-----2--|--2--2-----4--4--4-----5--|
 --2--2-----3--3--3--------|-----------4--4--4-----5--|

[E] [E] [E] [E] [E] [E] [E] [E] [E] [E] [E] [E] [E] [E] [E] [E]  
 
 --5--5-----2--2--2-----3--|--3--3-----------------4--|
 --5--5-----2--2--2-----3--|--3--3-----------------4--|
 --7--7-----3--3--3-----4--|--4--4-----1--1--1-----6--|
 --7--7-----4--4--4-----5--|--5--5-----2--2--2-----6--|
 --5--5-----4--4--4-----5--|--5--5-----2--2--2-----4--|
 --5--5-----2--2--2-----3--|--3--3-----------------4--|

[E] [E] [E] [E] [E] [E] [E] [E] [E] [E] [E] [E] [E] [E] [E] [E]  
 
 --4--4-----5--5--5-----2--|--2--2-----3--3--3--------|
 --4--4-----5--5--5-----2--|--2--2-----3--3--3--------|
 --6--6-----7--7--7-----3--|--3--3-----4--4--4-----1--|
 --6--6-----7--7--7-----4--|--4--4-----5--5--5-----2--|
 --4--4-----5--5--5-----4--|--4--4-----5--5--5-----2--|
 --4--4-----5--5--5-----2--|--2--2-----3--3--3--------|

[E] [E] [E] [E] [E] [E] [E] [E] [E] [E] [E] [E] [E] [E] [E] [E]  
 
 -----------4--4--4-----5--|--5--5-----2--2--2-----3--|
 -----------4--4--4-----5--|--5--5-----2--2--2-----3--|
 --1--1-----6--6--6-----7--|--7--7-----3--3--3-----4--|
 --2--2-----6--6--6-----7--|--7--7-----4--4--4-----5--|
 --2--2-----4--4--4-----5--|--5--5-----4--4--4-----5--|
 -----------4--4--4-----5--|--5--5-----2--2--2-----3--|

[E] [E] [E] [E] [E] [E] [E] [E] [E] [E] [E] [E] [E] [E] [E] [E]  
 
 --3--3-----------------4--|--4--4-----5--5--5-----2--|
 --3--3-----------------4--|--4--4-----5--5--5-----2--|
 --4--4-----1--1--1-----6--|--6--6-----7--7--7-----3--|
 --5--5-----2--2--2-----6--|--6--6-----7--7--7-----4--|
 --5--5-----2--2--2-----4--|--4--4-----5--5--5-----4--|
 --3--3-----------------4--|--4--4-----5--5--5-----2--|

[E] [E] [E] [E] [E] [E] [E] [E] [E] [E] [E] [E] [E] [E] [E] [E]  
 
 --2--2-----3--3--3--------|-----------4--4--4-----5--|
 --2--2-----3--3--3--------|-----------4--4--4-----5--|
 --3--3-----4--4--4-----1--|--1--1-----6--6--6-----7--|
 --4--4-----5--5--5-----2--|--2--2-----6--6--6-----7--|
 --4--4-----5--5--5-----2--|--2--2-----4--4--4-----5--|
 --2--2-----3--3--3--------|-----------4--4--4-----5--|

[E] [E] [E] [E] [E] [E] [E] [E] [E] [E] [E] [E] [E] [E] [E] [E]  
 
 --5--5-----2--2--2-----3--|--3--3-----------------4--|
 --5--5-----2--2--2-----3--|--3--3-----------------4--|
 --7--7-----3--3--3-----4--|--4--4-----1--1--1-----6--|
 --7--7-----4--4--4-----5--|--5--5-----2--2--2-----6--|
 --5--5-----4--4--4-----5--|--5--5-----2--2--2-----4--|
 --5--5-----2--2--2-----3--|--3--3-----------------4--|

[E] [E] [E] [E] [E] [E] [E] [E] [E] [E] [E] [E] [E] [E] [E] [E]  
 
 --4--4-----5--5--5-----2--|--2--2-----3--3--3--------|
 --4--4-----5--5--5-----2--|--2--2-----3--3--3--------|
 --6--6-----7--7--7-----3--|--3--3-----4--4--4-----1--|
 --6--6-----7--7--7-----4--|--4--4-----5--5--5-----2--|
 --4--4-----5--5--5-----4--|--4--4-----5--5--5-----2--|
 --4--4-----5--5--5-----2--|--2--2-----3--3--3--------|

[E] [E] [E] [E] [E] [E] [E] [E] [E] [E] [E] [E] [E] [E] [E] [E]  
 
 -----------4--4--4-----5--|--5--5-----2--2--2-----3--|
 -----------4--4--4-----5--|--5--5-----2--2--2-----3--|
 --1--1-----6--6--6-----7--|--7--7-----3--3--3-----4--|
 --2--2-----6--6--6-----7--|--7--7-----4--4--4-----5--|
 --2--2-----4--4--4-----5--|--5--5-----4--4--4-----5--|
 -----------4--4--4-----5--|--5--5-----2--2--2-----3--|

[E] [E] [E] [E] [E] [E] [E] [E] [E] [E] [E] [E] [E] [E] [E] [E]  
 
 --3--3-----------------4--|--4--4--4--4--4--4--4--4--|
 --3--3-----------------4--|--4--4--4--4--4--4--4--4--|
 --4--4-----1--1--1-----6--|--6--6--6--6--6--6--6--6--|
 --5--5-----2--2--2-----6--|--6--6--6--6--6--6--6--6--|
 --5--5-----2--2--2-----4--|--4--4--4--4--4--4--4--4--|
 --3--3-----------------4--|--4--4--4--4--4--4--4--4--|

E E E E E E E E E E E E E E E E W
 
 --4--4--4--4--4--4--4--4--|--4--4--4--4--4--4--4--4--|--4----------------|
 --4--4--4--4--4--4--4--4--|--4--4--4--4--4--4--4--4--|--4----------------|
 --6--6--6--6--6--6--6--6--|--6--6--6--6--6--6--6--6--|--6----------------|
 --6--6--6--6--6--6--6--6--|--6--6--6--6--6--6--6--6--|--6----------------|
 --4--4--4--4--4--4--4--4--|--4--4--4--4--4--4--4--4--|--4----------------|
 --4--4--4--4--4--4--4--4--|--4--4--4--4--4--4--4--4--|--4----------------|

E S E. E S E. E S S S. E S E. E S 4x W
 
 |------------2--2-----4--4---|-----4--4-----------||-------------------|
 |------------4--4-----4--4---|-----4--4-----2--2--||--7----------------|
 |*--1--1-----4--4-----6--6---|-----4--4-----2--2-*||--9----------------|
 |*--2--2-----4--4-----6--6---|-----6--6-----2--2-*||--9----------------|
 |---2--2-----2--2-----4--4---|-----6--6-----------||--7----------------|
 |------------2--2-----4--4---|-----4--4-----------||-------------------|

W
 
 -------------------||
 --L----------------||
 -------------------||
 -------------------||
 -------------------||
 -------------------||

Duration Legend
 
 ---------------

W - whole
H - half
Q - quarter
E - 8th
S - 16th
T - 32nd
X - 64th
. - note dotted
|-n-| - n-tuplets
Tablature Legend
 
 ----------------

L - tied note
x - dead note
g - grace note
(n) - ghost note
> - accentuded note
NH - natural harmonic
AH - artificial harmonic
TH - tapped harmonic
SH - semi harmonic
PH - pitch harmonic
h - hammer on
p - pull off
b - bend
br - bendRelease
pb - preBend
pbr - preBendRelease
brb - bendReleaseBend
\n/ - tremolo bar dip
\n - tremolo bar dive
-/n - tremolo bar Release up
/n\ - tremolo bar inverted dip
/n - tremolo bar return
-\n - tremolo bar Release down
S - shift slide
s - legato slide
/ - slide into from below or out of upwards
\ - slide into from above or out of downwards
~ - vibrato
W - wide vibrato
tr - trill
TP - tremolo picking
T - tapping
S - slap
P - pop
< - fade in
^ - brush up
v - brush down

Important: The song above is NOT stored on the Chordie server. The original song is hosted at www.guitartabs.cc. Chordie works as a search engine and provides on-the-fly formatting. Chordie does not index songs against artists'/composers' will. To remove this song please click here.

Text color:
Chord color:
Chord grids: 
Font size:    
Page size: 

E
Rate #1 of 5 versions

Login - add to songbook

SHARE PAGE  



You need to log in to post comments