Guitar Tabs, Chords and Lyrics
Server problems seems to be fixed. Chordie has been experiencing problems with songs disappearing. These issues now seems to be fixed, but still verifying the fix. If you find anything strange, please email admin@chordie.com.


Shiny Shoes  Beatsteaks

Song: Shiny Shoes
Album: Launched
Tabbed by:Necriononguitar
E-Mail: tim.rathgen@web.de
This Tab is in german, but u will get it without reading the text :)
Tuning: Half step down
Die Zeitangaben sind für die Live-Version!
(Der Tab auch, ist aber die Studio-Version klingt gleich)
Intro:
Guitar 2
 
 E----15-15-15--14-14-14-----------------|
 B------------------------15-15----------|
 G---------------------------------------|
 D---------------------------------------| x 4
 A---------------------------------------|
 E---------------------------------------|

Intro-Chorus: 0:06
Guitar 2
 
 E---15-15-15--14-14-14-------------|
 B-----------------------15-15------|
 G----------------------------------|
 D----------------------------------| x 4
 A----------------------------------|
 E----------------------------------|

Nach dem 4.mal eine kleine Veränderung (man kann den oberen Part auch weiter spielen):
 
 E--19-15-19--14-14-14-----------------|
 B----------------------15-15----------|
 G-------------------------------------|
 D-------------------------------------| x 4
 A-------------------------------------|
 E-------------------------------------|

Guitar 1
[D] [A] [E] [G]  
 
 E---------------------------------------------------|
 B---------------------------------------------------|
 G---7-----------------------------------------------|
 D---7--x8----7---------2--------5-------------------|
 A---5--------7--x8-----2--x8----5--x8---------------|
 E------------5---------0--------3-------------------|

[B] [A] [G]  
 
 E-------------------------------------------------|
 B-----------------------------12---12---12--------|
 G-----------------------------12---12---12--------|
 D----9-------7-------5--------12---12---12--------|
 A----9--x8---7--x8---5--x8----10---10---10--------|
 E----7-------5-------3----------------------------|

Verse: 0:18
Guitar 1 (NO Guitar 2)
[D] [E] [F#] [G] [D] [C] [B] [A] [F#] [G]  
 
 E----------------------------------------------------------------------------|
 B----------------------------------------------------------------------------|
 G----------------------------------------------------------------------------|
 D---7------9------11------12----------7------5------4------2-----4-4--5-5----|
 A---5-x7---7-x7---9--x7---10-x7-------5-x7---3-x7---2-x7---0-x4--4-4--5-5----|
 E----------------------------------------------------------------2-2--3-3----|

Man schlägt GENAU 7 mal an, da der 8. Ton verstummt.
Nachdem das hier einmal gespielt wurde spielt Guitar 2 mit.
[D] [E] [F#] [G]  
 
 E-------------------------------------|
 B-------------------------------------|
 G-------------------------------------|
 D--7------9------11------12-----------|
 A--5-x7---7-x7---9--x7---10-x7--------|
 E-------------------------------------|

Danach: (0:36)
Guitar 1
[D] [C] [B] [A] [G] [F#] [G]  
 
 E----------------------------------------------|
 B----------------------------------------------|
 G---7~---555---444---2-2-----------------------|
 D---7~---555---444---2-2--5-5--4-4--5-5--------|
 A---5~---333---222---0-0--5-5--4-4--5-5--------|
 E-------------------------3-3--2-2--3-3--------|

Guitar 2
 
 E---10------10------10------10--12--10-------10------10------10--12----|
 B-------10------10------10--------------10-------10------10------------|
 G----------------------------------------------------------------------|
 D----------------------------------------------------------------------| x2
 A----------------------------------------------------------------------|
 E----------------------------------------------------------------------|

Chorus: 0:43
Der Intro Chorus wird 2 mal von beiden Gitarren gespielt
(See Above)
Verse: 1:08
Wird von beiden Gitarren gleich gespielt wie zuvor (See Above)
Nur Folgender Part wird Palm-muted von der 2. Gitarre mitgespielt:
[D] [E] [F#] [G]  
 
 E----------------------------------------|
 B----------------------------------------|
 G----------------------------------------|
 D--7------9------11------12--------------|
 A--5-x7---7-x7---9--x7---10-x7-----------|
 E----------------------------------------|

Chorus: 1:32
Wie zuvor (x1)
See Above (play once)
Bridge: 1:45
Guitar 1+2
[A] [C] [A] [G] [F#] [E]  
 
 E------------------------------------------------|
 B------------------------------------------------|
 G----------5-5-5---------------------------------|
 D---7-7-7--5-5-5--7-7---5-5-5--4-4-4--2-2--------| x 2
 A---7-7-7--3-3-3--7-7---5-5-5--4-4-4--2-2--------|
 E---5-5-5---------5-5---3-3-3--2-2-2--0-0--------|
 E-------------------------------------------|
 B-------------------------------------------|
 G----------5-5------------------------------|
 D---7-7-7--5-5--7-7----5--5--4-4--2---------|
 A---7-7-7--3-3--7-7----5--5--4-4--2---------|
 E---5-5-5-------5-5----3--3--2-2--0---------|
 E-------------------------------|
 B-------------------------------|
 G---------5-5-------------------|
 D--7-7-7--5-5--7-7-7---7--------|
 A--7-7-7--3-3--7-7-7---7-x8-----|
 E--5-5-5-------5-5-5---5--------|

Chorus: 1:57
Guitar 1 spielt dasselbe wie zuvor (S.A.)
Guitar 2 (Solo)
 
 E-------------------------------------------|
 B-------------------------------------------|
 G--11-x16----12-x16----11-x16---14-x16------|
 D-------------------------------------------|
 A-------------------------------------------|
 E-------------------------------------------|
 E----------------------------------------------------------------|
 B----------------------------------------------------------------|
 G---12-12-12--11-11-11--11-11---14-14-14--11-11-11--11-11--------|
 D----------------------------------------------------------------|
 A----------------------------------------------------------------|
 E----------------------------------------------------------------|

Die 2. Gitarre spielt das hier bis zum Ende.
Guitar 2 is playing this til the end.
Die 1. Gitarre spielt den Chorus bis zum Ende.
Guitar 1 is playing the Chorus til the end.
Ich weiß das es ein wenig unübersichtlich aussieht, ist aber richtig.
Bitte erst Fragen stellen und dann Bewerten.
Please comment before u rate.

Important: The song above is NOT stored on the Chordie server. The original song is hosted at www.guitartabs.cc. Chordie works as a search engine and provides on-the-fly formatting. Chordie does not index songs against artists'/composers' will. To remove this song please click here.

Text color:
Chord color:
Chord grids: 
Font size:    
Page size: 

A B C D E F# G
Rate #1 of 2 versions

Jango Player

Login - add to songbook

SHARE PAGE  



You need to log in to post comments