Guitar Tabs, Chords and Lyrics
Server problems seems to be fixed. Chordie has been experiencing problems with songs disappearing. These issues now seems to be fixed, but still verifying the fix. If you find anything strange, please email admin@chordie.com.


Let Your Love Flow  The Bellamy Brothers

GUITAR CAPO 1st
(INTRO)
[D] [G] [D] [G]  
 
 G:--------|--------|--------|--------|
 D:--------|--------|--------|--------|
 A:--------|--------|--------|--------|
 E:--------|--------|--------|--------|

(VERSE)
There's a [D]reason for the [D]sunshiny [G]sky
There's a [D]reason why I'm [D]feeling so [G]high
Must be the [A]season when that [A]love light shines all a[D]round us[D]
So let that [D]feeling grab you [D]deep in[G]side
And send you [D]reeling where your [D]love can't [G]hide
And then go [A]stealing through the [A]moonlit nights with your [D]lover[D7]
[D] [D] [G] [D] [D] [G] [A] [A] [D] [G] [D] [G]  
 
 G:--5---58|--5-----|--5---58|--5-----|--------|--------|--5---58|--5-----|
 D:---8-8--|---8-85-|---8-8--|---8-85-|885---5-|885---5-|---8-8--|---8-85-|
 A:66------|66-----8|66------|66-----8|---8-8-8|---8-8-8|66------|66-----8|
 E:--------|--------|--------|--------|--------|--------|--------|--------|

[D] [D] [G] [D] [D] [G] [A] [A] [D] [D7]  
 
 G:--5---58|--5-----|--5---58|--5-----|--------|--------|--5---58|--5-----|
 D:---8-8--|---8-85-|---8-8--|---8-85-|885---5-|885---5-|---8-8--|---8-85-|
 A:66------|66-----8|66------|66-----8|---8-8-8|---8-8-8|66------|66-----8|
 E:--------|--------|--------|--------|--------|--------|--------|--------|

(CHORUS)
Just let your [G]love flow like a mountain stream
And let your [D]love grow with the smallest of dreams
And let your [A]love show and you'll know what I mean it's the [D]season[D7]
Let your [G]love fly like a bird on the wing
And let your [D]love bind you to all living things
And let your [A]love shine and you'll know what I mean that's the [D]reason.
[G] [G] [D] [D] [A] [A] [D] [D7]  
 
 G:--------|--------|--5---58|--5---5-|--------|--------|--5---58|--5---5-|
 D:66-----6|66-----6|---8-8--|---8-8-8|885---5-|885---5-|---8-8--|---8-8-8|
 A:--86-68-|--86-68-|66------|66------|---8-8-8|---8-8-8|66------|66------|
 E:--------|--------|--------|--------|--------|--------|--------|--------|

[G] [G] [D] [D] [A] [A] [D] [D]  
 
 G:--------|--------|--5---58|--5---5-|--------|--------|--------|--------|
 D:66-----6|66-----6|---8-8--|---8-8-8|885---5-|885---5-|--------|--------|
 A:--86-68-|--86-68-|66------|66------|---8-8-8|---8-8-8|6-------|6-------|
 E:--------|--------|--------|--------|--------|--------|--------|--------|

(VERSE)
There's a [D]reason for the [D]warm sweet [G]nights
and there's a [D]reason for the [D]candle [G]lights
must be the [A]season when those [A]love rights shine all a[D]round us
So let that [D]wonder take you [D]into [G]space
And lay you [D]under its [D]loving em[G]brace
Just feel the [A]thunder as it [A]warms your face you can't [D]hold back[D7]
[D] [D] [G] [D] [D] [G] [A] [A] [D] [G] [D] [G]  
 
 G:--5---58|--5-----|--5---58|--5-----|--------|--------|--5---58|--5-----|
 D:---8-8--|---8-85-|---8-8--|---8-85-|885---5-|885---5-|---8-8--|---8-85-|
 A:66------|66-----8|66------|66-----8|---8-8-8|---8-8-8|66------|66-----8|
 E:--------|--------|--------|--------|--------|--------|--------|--------|

[D] [D] [G] [D] [D] [G] [A] [A] [D] [D7]  
 
 G:--5---58|--5-----|--5---58|--5-----|--------|--------|--5---58|--5-----|
 D:---8-8--|---8-85-|---8-8--|---8-85-|885---5-|885---5-|---8-8--|---8-85-|
 A:66------|66-----8|66------|66-----8|---8-8-8|---8-8-8|66------|66-----8|
 E:--------|--------|--------|--------|--------|--------|--------|--------|

(CODA) (Repeat & Fade, variations on the D7 and D ending each staff)
Just let your [G]love flow like a mountain stream
And let your [D]love grow with the smallest of dreams
And let your [A]love show and you'll know what I mean it's the [D]season[D7]
Let your [G]love fly like a bird on the wing
And let your [D]love bind you to all living things
And let your [A]love shine and you'll know what I mean that's the [D]reason.
[G] [G] [D] [D] [A] [A] [D] [D7]  
 
 G:--------|--------|--5---58|--5---5-|--------|--------|--5---58|--5---5-|
 D:66-----6|66-----6|---8-8--|---8-8-8|885---5-|885---5-|---8-8--|---8-8-8|
 A:--86-68-|--86-68-|66------|66------|---8-8-8|---8-8-8|66------|66------|
 E:--------|--------|--------|--------|--------|--------|--------|--------|

[G] [G] [D] [D] [A] [A] [D] [D]  
 
 G:--------|--------|--5---58|--5---5-|--------|--------|--58-5-5|8ACC-A8-|
 D:66-----6|66-----6|---8-8--|---8-8-8|885---5-|885---5-|------8-|--------|
 A:--86-68-|--86-68-|66------|66------|---8-8-8|---8-8-8|66------|--------|
 E:--------|--------|--------|--------|--------|--------|--------|--------|

Tabbed by Michael Oxner
moxner@nbnet.nb.ca
March 31, 2011

Important: The song above is NOT stored on the Chordie server. The original song is hosted at www.guitartabs.cc. Chordie works as a search engine and provides on-the-fly formatting. Chordie does not index songs against artists'/composers' will. To remove this song please click here.

Text color:
Chord color:
Chord grids: 
Font size:    
Page size: 

A D D7 G
Rate #1 of 8 versions

Login - add to songbook

SHARE PAGE  




You need to log in to post comments