Guitar Tabs, Chords and Lyrics
Major upgrade!! After one year development the new version of Chordie is now online! Please give feedback.


Stay Loose  Belle and Sebastian

ubi_rex@hotmail.com
this is a great song, but it seems like stuart pasted three songs together to make it.
anyway, email me the mistakes, since it is sooooo long i'm sure i made many.
if a verse has no chords above it, use the previous verse's chords. enjoy.
intro
[G#] [F#] [D#m] [C#]  
 
 ---4-4--4-6-4----1--2-1-2-1-2-4-1--------------------------------------
 4--------------4-------------------------------------------------------
 -----------------------------------------------------------------------
 -----------------------------------------------------------------------
 -----------------------------------------------------------------------
 -----------------------------------------------------------------------

[G#] [F#] [D#m] [C#] [C#m] [B] 
 
 ---4-4--4-6-4----1--2-1-2-1-2-4-1--------------------------------------
 4--------------4-------------------2-4--5-4-5-4-5-7-4--0-2-3-2-3-2-3---
 -----------------------------------------------------------------------
 -----------------------------------------------------------------------
 -----------------------------------------------------------------------
 -----------------------------------------------------------------------

[C#m] [B] [Bm] [A] [G#m] 
 
 -----------------------------------------------------------------------
 -2-4--5-4-5-4-5-7-4--0-2--3-2-3-2-3-5-2--1-----------------------------
 -----------------------------------------------------------------------
 -----------------------------------------------------------------------
 -----------------------------------------------------------------------
 -----------------------------------------------------------------------

some of the guitar solo
 
 ----------------------------------------------------------------------
 -------------------------------------8---------8---------8------------
 ------------------------------8-10-8---10p8------10p8------10p8-------
 -------------------------8-10---------------10--------10--------10----
 -----6h8-6---6-8-10-8-10----------------------------------------------
 --6h8------8----------------------------------------------------------

use index
|
 
 ----------------------------------------------------------------------
 -8----------8-----------8----------------------11----11--13--18-16----
 ---10p8-------10p8-------10p8----8-10p8-10/12-----12------------------
 --------10----------10--------10--------------------------------------
 ----------------------------------------------------------------------
 ----------------------------------------------------------------------
 --------------------------------------------11-10--------8-8/10-10-10-
 -15-16-18-16-15-13-15-13-11---11h13p11----11------11-10--8-8/10-10-10-
 ----------------------------12----------------------------------------
 ----------------------------------------------------------------------
 ----------------------------------------------------------------------
 ---------------------------------------------------------------------- repeat


Important: The song above is NOT stored on the Chordie server. The original song is hosted at www.guitartabs.cc. Chordie works as a search engine and provides on-the-fly formatting. Chordie does not index songs against artists'/composers' will. To remove this song please click here.

Text color:
Chord color:
Chord grids: 
Font size:    
Page size: 

A B Bm C# C#m D#m F# G# G#m
Rate #1 of 4 versions

Jango Player

Login - add to songbook

SHARE PAGE  




You need to log in to post comments