Guitar Tabs, Chords and Lyrics
Major upgrade!! After one year development the new version of Chordie is now online! Please give feedback.


Power of the Gospel  Ben Harper

 
 ---------------------------------------------------------------

POWER OF THE GOSPEL (accoustic) - BEN HARPER - live from mars
 
 ---------------------------------------------------------------

Transcribed by Soozn Myhill
Email:soozn@mail2medieval.com
Tuning:EADGBe
Timing:3/4
intro:
 
 e||----------|
 B||-------0--|
 G||*----2----|
 D||*---------|
 A||----------|
 E||----------| 2nd time - last time

^
 
 e|-----------|-----------|-----------|-----------|s
 B|--1--0-----|-----------|-----------|-----------|
 G|--0-----2--|--0--------|-----------|--0--------|
 D|--2--------|-----4--2--|--1--2--4--|-----4--2--|
 A|--3--------|-----------|--2--------|-----------|
 E|-----------|--0--------|-----------|--0--------| 

^
 
 e|-----------|-----------|-----------|-----------|o
 B|--1--0-----|-----------|-----------|---------0-|
 G|--0-----2--|--0--------|-----------|-----------|
 D|--2--------|-----4--2--|--1--------|--2--------|
 A|--3--------|-----------|--2--------|--0--------|
 E|-----------|--0--------|-----------|-----------|

^
 
 e|-----------|-----------|-----------|-----------|o
 B|--1--0-----|-----------|-----------|-----------|
 G|--0-----2--|--0--------|-----------|--0--------|
 D|--2--------|-----4--2--|--1--2--4--|-----4--2--|
 A|--3--------|-----------|--2--------|-----------|
 E|-----------|--0--------|-----------|--0--------|

^ sustained
 
 e|-----------|-----------|-----------|-----------|z
 B|--1-0h1p0--|-----------|-----------|-----------|
 G|--0-------2|--0--------|-----0-----|---0-------|
 D|--2--------|-----4--2--|------\____|__/--------|
 A|--3--------|-----------|--3--------|-----------|
 E|-----------|--0--------|-----------|-----------|

sustained (1.__________________)
 
 e|-----------|-----------|-----------|----------||n
 B|-----------|-----------|-----------|----------||
 G|-----------|-----------|-----------|---------*||
 D|-----1-----|---1-------|-----2p1---|--2------*||
 A|------\____|__/--------|-----------|----------||
 E|--2--------|-----------|--0--------|----------||

(2.___________________)
 
 e|-----------|-----------||
 B|-----------|-----------||
 G|-----------|-----------||
 D|-----2h4---|--2--------||
 A|-----------|-----------||
 E|--0--------|-----------||

(last bar)
 
 e|-------------------||m
 B|-------------------||
 G|-------------------||
 D|-----2-4-2h4p2h4p2-||
 A|-------------------||
 E|--0----------------||

 
 e||-----------|-----------|-----------|------------||y
 B||-----------|-----1-1---|-----------|------------||
 G||*----------|-----------|-----4-4---|-----2-2p0-*|| play 3 times
 D||*----2-2p0-|-----------|-----------|--0--------*||
 A||-----------|--3--------|-----------|------------||
 E||--0--------|-----------|--3--------|------------||

 
 e|-----------|-----------|-----------|-------------||h
 B|-----------|-----------|-----------|-------------||
 G|-----0--0--|-----------|-----------|-----------4-||
 D|-----------|-----4h5-4h5p4h5p4-----|--1-2---2----||
 A|--3--------|--2--------|-----------|-------------||
 E|-----------|-----------|-----------|------0------||

58
^ ^ ^
 
 e||-------------|------------|-----------|------------||i
 B||-------------|------------|-------1-1-|------------||
 G||*-------4--4-|-------4--4-|-------2---|---------4-*|| repeat 3 times
 D||*-1-2---2--2-|-1-2---2--2-|-1-2---2---|-1-2---2---*||
 A||-------------|------------|-----0-----|------------||
 E||------0------|-----0------|-----------|-----0------||

 
 e|------------|-------------|-------------|-----------|l
 B|------------|-------------|-------------|-----------|
 G|--------0-0-|-------------|--------0-0--|-----------|
 D|-1-2--------|-1-2-----4-4-|-1-2---------|-1-2----4--|
 A|------3-----|------2------|------3------|------2----|
 E|------------|-------------|-------------|-----------|

[74] 
 
 e|------------|-------------|--------------|------------||l
 B|------------|-------------|--------------|------------||
 G|--------0-0-|-------------|--------------|------------||
 D|-1-2--------|-1-2-----4-4-|--1---2-------|-------2h4p2||
 A|------3-----|------2------|----2---2---2-|------------||
 E|------------|-------------|----------3---|-0----------||

78
pog verses and chorus
Verse:
 
 e|------------|
 B|------------|
 G|------------|
 D|-------0h2--|
 A|------------|
 E|------------|

[Em] [Em]  
 
 e||----0---0-0---0-0---------|----0---0-0---0-0-----------|
 B||----0---0-0---0-0---------|----0---0-0---0-0-----------|
 G||----0---0-0---0-0---------|----0---0-0---0-0-----------|
 D||----2---2-2---2-2----0h2--|----2---2-2---2-2----0h2p0--|
 A||----2---2-2---2-2---------|----2---2-2---2-2-----------|
 E||--0---0-----0------3------|--0---0-----0------3--------|

[Em] [Em]  
 
 e|----0----0-0---0-0---------|----0---0-0---0-0-----------||
 B|----0----0-0---0-0---------|----0---0-0---0-0-----------||
 G|----0----0-0---0-0---------|----0---0-0---0-0-----------||
 D|----2----2-2---2-2----0h2--|----2---2-2---2-2----0h2----||
 A|----2----2-2---2-2---------|----2---2-2---2-2-----------||
 E|--0----0-----0------3------|--0---0-----0------3--------||

it will
[Em] [C]  
 
 e||-----0---------0----------|------0----------------------|
 B||-----0---------0----------|------1-------1--------------|
 G|*-----0---------0----------|------0-------0--------------|
 D|*-----2---------2----------|------2-------2--------------|
 A||-----2---------2----------|---3--3----3--3--------------|
 E||--0-------0---------------|-----------------------------|

make a weak man mighty it will
[D] [Em]  
 
 e|-----2----------2---------|------0----------------------||
 B|-----3----------3---------|------0----------------------||
 G|-----2----------2---------|------0----------------------*| repeat pattern
 D|--0--0-----0----0---------|------2-----0h2--------------*| x 3
 A|--------------------------|------2----------------------||
 E|--------------------------|---0------3------------------||

make a mighty man fall
[Em]It will fill your [C]heart and hands
Or [D]leave you with nothing at [Em]all
[Em]It's the eyes for the [C]blind
The [D]legs for the [Em]lame
[Em]It is [C]love for hate
And [D]pride for [Em]shame
chorus:
[Em] [Em]  
 
 e||---------0---------0-----|--------0--------------------|
 B||---------0---------0-----|--------0--------------------|
 G||---------0---------0-----|--------0--------------------|
 D||---------2---------2-----|--------2------0h2-----------|
 A||---------2---------2-----|--------2--------------------|
 E||---0---------0-----------|----0--------3---------------|

now thats the power of the gos pel
[Em] [Bm]  
 
 e|-------0----------0-------|-------2------2--------------|
 B|-------0----------0-------|-------3------3--------------|
 G|-------0----------0-------|-------4------4--------------|
 D|-------2----------2-------|-------4------4--------------|
 A|-------2----------2-------|---2---2--2---2--------------|
 E|---0--------0-------------|-----------------------------|

thats the power of the gos pe l
[Em] [C]  
 
 e|--------0---------0-------|-----------0---------0-------|
 B|--------0---------0-------|-----------1---------1-------|
 G|--------0---------0-------|-----------0---------0-------|
 D|--------2---------2-------|-----------2---------2-------|
 A|--------2---------2-------|---3-------3-----3---3-------|
 E|--0---------0-------------|-----------------------------|

thats the power of the mighty power
[Bm] [Em]  
 
 e|--------2----------2------|-------0---------0-----------|
 B|--------3----------3------|-------0---------0-----------|
 G|--------4----------4------|-------0---------0-----------|
 D|--------4----------4------|-------2---------2-----------|
 A|---2----2----2-----2------|-------2---------2-----------|
 E|--------------------------|---0---------0---------------|

thats the power of the gos pel yeah
[Bm] [Em]  
 
 e|--------2----------2------|-------0--------0------------|
 B|--------3----------3------|-------0--------0------------|
 G|--------4----------4------|-------0--------0------------|
 D|--------4----------4------|-------2--------2------------|
 A|--2-----2----2-----2------|-------2--------2------------|
 E|--------------------------|---0---------0---------------|

thats the power of the gos pel
 
 e|---0--------|----0-----0--0-|----0-----------||
 B|---0--------|----0-----0--0-|----0-----------||
 G|---0--------|----0-----0--0-|----0-----------||
 D|---2----0h2-|----2-----2--2-|----2-----0h2p0-||
 A|---2--------|----2-----2--2-|----2-----------||
 E|-0----0-----|--0----0-------|--0----0--------||

Gospel on the water
Gospel on the land
The gospel in every woman
And the gospel in every man
Gospel in the garden
Gospel in the trees
The gospel that's inside of you
The gospel inside of me
Chorus:
now [Em]That's the power of the gospel
[Em]That's the power of the [Bm]gospel
[Em]That's the power of [C]the mighty power
[Bm]That's the power of the [Em]gospel yeah
[Bm]That's the power ohhhhh [Em]f
In the hour of richness
In the hour of need
For all of creation
Comes from the gospel seed
Now you may leave tomorrow
And you may leave today
But you've got to have, got to have the gospel ready
When you start out on your way
That's the power of the gospel
That's the power of the gospel
That's the power of the mighty mighty power
That's the power of the gospel yeah
That's the power of the gospel inside of you
and inside of me
the power ohhhf the mighty power the gospel
yeah That's the power of the gospel
^ arpegio
h hammer-on
p pull-off
file best viewed in window$ notepad using courier font
___________________________________________________________________________
As you can probably gather this is P.O.T.G by Ben Harper taken
from the Live from Mars album, it's quite a diverse masterpiece. There are
2 versions of this song the other is on the album fight for your mind.
__________________________________________________________________________
**Please Note**
This file is only my interpretation of the song. You may only use this file
for private study, scholarship, or research. If you have any comments,
queries or suggestions please email me:
soozn@mail2medieval.com
;)
snoozn
___________________________________________________________________________

Important: The song above is NOT stored on the Chordie server. The original song is hosted at www.guitartabs.cc. Chordie works as a search engine and provides on-the-fly formatting. Chordie does not index songs against artists'/composers' will. To remove this song please click here.

Text color:
Chord color:
Chord grids: 
Font size:    
Page size: 

Bm C D Em
Rate #1 of 9 versions

Login - add to songbook

SHARE PAGE  




You need to log in to post comments