Guitar Tabs, Chords and Lyrics
Major upgrade!! After one year development the new version of Chordie is now online! Please give feedback.


I Don't Know Why  Ben Kweller

I Don't Know Why - Ben Kweller
 
 ------------------------------

note:
* = play single note on low E string
Intro:
[D] [(D)]  
 
 --5-5-5-5-5-----------------
 --7-7-7-7-7----(7)----------
 --7-7-7-7-7----(7)----------
 --7-7-7-7-7----(7)----------
 --5-5-5-5-5-----------------
 --5-5-5-5-5-----------------

Check me [G]out [C] I'm losing [G]control[C]
I wanna rock and [G]Roll
But [Am]everything I planned just [C]slips right through my hands
And I [D]don't [C]know [G]why [C] Hey I'm a nice [G]guy[C]
I wanna take it [G]easy baby
But [Am]every time I start My [C]world falls apart
And I [D]don't [C]know [G]why
Chorus:
The world is fe[C]eling [D] [G] like it's passing me by[C] [D] [G]
(I don't know why) (I don't know why)
G* F#* Em D C G
I'm fixing to lose it But I don't know why
[C] [D] [(D)]  
Check me [G]in, [C] I wanna be your [G]friend.[C]
I wanna be your [G]lover baby.
[Am]Everything I say [C]comes out the wrong way
and I [D]don't [C]know [G]why. [C] So I guess I'll let it [G]slide by[C]
I wanna take it [G]slowy honey.
I'm [Am]feeling like a fake, [C]every move I make
And I [D]don't [C]know [G]why
Chorus
[Bm]Again and again and again and again I try[Em]
I'm [Am]fixing to lose it and I [D]don't [C]know, I [D]don't [C]know
I [D]don't [C]know [G]why
Solo:
[G] [C] [Em] [A7] [Am]  
 
 -----------------------|-----------------------------
 -----------------------|-------------8--5------------
 -----------------------|-------------------4---------
 -------------5---------|---b(8)7--5-----------5--5---
 -------5--7------------|-----------------------------
 -----------------------|-----------------------------

(yeah)
[Am]Everything I planned just [C]slips right through my hand
and I [D]don't [C]know [G]why.
Chorus x 2
Hey [A7]Sugar
I'm [Am]fixing to lose it, and I [D]don't [C]know, I [D]don't [C]know, I [D]don't [C]know [G]why

Important: The song above is NOT stored on the Chordie server. The original song is hosted at www.guitartabs.cc. Chordie works as a search engine and provides on-the-fly formatting. Chordie does not index songs against artists'/composers' will. To remove this song please click here.

Text color:
Chord color:
Chord grids: 
Font size:    
Page size: 

A7 Am Bm C D Em G
Rate #1 of 2 versions

Login - add to songbook

SHARE PAGE  



You need to log in to post comments