Guitar Tabs, Chords and Lyrics
Major upgrade!! After one year development the new version of Chordie is now online! Please give feedback.


No Particular Place to Go  Chuck Berry

As recorded by Chuck Berry
(From the 2000 Album ANTHOLOGY)
TABBER: Unknown
Gtr I (E A D G B E) - 'Lead - amp overdrive'
Gtr II (E A D G B E) - 'Rhythm - amp overdrive'
Intro
Q=126(8=s8)
[4/4] Gtr I
 
 |--3--| |--3--| |--3--| |--3--|

E E E E E E E E E E E E E E Q H
 
 |-10-10-10-10-10-10-10-10-10-10-10-10-|-10-----------||
 |-11-11-11-11-11-11-11-11-11-11-11-11-|-11-----------||
 |-11-11-11-11-11-11-11-11-11-11-11-11-|-11-----------||
 |-12-12-12-12-12-12-12-12-12-12-12-12-|-12-----------||
 |-------------------------------------|--------------||
 |-------------------------------------|--------------||

Verse
[G]$
Gtr II
E E E E E E E E E E Q H
 
 ||-----------------------------|--------------||
 ||o----------------------------|-------------o||
 ||-----------------------------|--------------||
 ||-----------------------------|--------------||
 ||o-5-5--7---7---5---5---7-7---|-5-----------o||
 ||--3-3--3---3---3---3---3-3---|-3------------||

|
| Gtr I
 
 | |--3--| |--3--| |-3-|

| Q E E E E E E Q E E E Q H
 
 ||-----------------------------|--------------||
 ||o-----/6-6---6-6-6---6-5---3-|-------------o||
 ||------/7-7---7-7-7---7-5---4-|--------------||
 ||-----------------------------|-5------------||
 ||o----------------------------|-------------o||
 ||-----------------------------|--------------||

[C]E E E E E E E E E E Q H E E E E E E E E E E Q H
 
 |----------------------|-------------|----------------------|-------------|
 |----------------------|-------------|----------------------|-------------|
 |----------------------|-------------|----------------------|-------------|
 |-5-5--7-7--5-5--7-7---|-5-----------|----------------------|-------------|
 |-3-3--3-3--3-3--3-3---|-3-----------|-5-5--7-7--5-5--7-7---|-5-----------|
 |----------------------|-------------|-3-3--3-3--3-3--3-3---|-3-----------|

|
| |-3-| |-3-|
| Q Q Q Q E E E Q H Q Q Q Q E E E Q H
 
 |-----/3---/3----------|-------------|-----/3---/3----------|-------------|
 |-----/3---/3---\5---3-|-------------|-----/3---/3---\5---3-|-------------|
 |---------------\5---3-|-------------|---------------\5---3-|-------------|
 |----------------------|-5-----------|----------------------|-5-----------|
 |----------------------|-------------|----------------------|-------------|
 |----------------------|-------------|----------------------|-------------|

[D]E E E E E E E E E E Q H
 
 |----------------------------|-------------|
 |----------------------------|-------------|
 |----------------------------|-------------|
 |-7-7--9---9---7---7---9-9---|-7-----------|
 |-5-5--5---5---5---5---5-5---|-5-----------|
 |----------------------------|-------------|

|
 
 | |--3--| |--3--| |-3-|

| Q E E E E E E Q E E E Q H
 
 |----------------------------|-------------|
 |-----/6-6---6-6-6---6-5---3-|-------------|
 |-----/7-7---7-7-7---7-5---4-|-------------|
 |----------------------------|-5-----------|
 |----------------------------|-------------|
 |----------------------------|-------------|

E E E E E E E E E E Q H
 
 |----------------------------|-------------||
 |----------------------------|-------------||
 |----------------------------|-------------||
 |----------------------------|-------------||
 |-5-5--7---7---5---5---7-7---|-5-----------||
 |-3-3--3---3---3---3---3-3---|-3-----------||

|
 
 | |--3--| |--3--| |-3-|

| Q E E E E E E Q E E E Q H
 
 |----------------------------|-------------||
 |-----/6-6---6-6-6---6-5---3-|-------------||
 |-----/7-7---7-7-7---7-5---4-|-------------||
 |----------------------------|-5-----------||
 |----------------------------|-------------||
 |----------------------------|-------------||

Verse
E E E E E E E E E E Q H
 
 ||-----------------------|--------------||
 ||o----------------------|-------------o||
 ||-----------------------|--------------||
 ||-----------------------|--------------||
 ||o-5-5--7-7--5-5--7-7---|-5-----------o||
 ||--3-3--3-3--3-3--3-3---|-3------------||

|
| |-3-|
| Q Q Q Q E E E Q H
 
 ||------/3---/3----------|--------------||
 ||o-----/3---/3---\5---3-|-------------o||
 ||----------------\5---3-|--------------||
 ||-----------------------|-5------------||
 ||o----------------------|-------------o||
 ||-----------------------|--------------||

E E E E E E E E E E Q H
 
 |----------------------------|-------------|
 |----------------------------|-------------|
 |----------------------------|-------------|
 |-5-5--7---7---5---5---7-7---|-5-----------|
 |-3-3--3---3---3---3---3-3---|-3-----------|
 |----------------------------|-------------|

|
 
 | |--3--| |--3--| |-3-|

| Q E E E E E E Q E E E Q H
 
 |----------------------------|-------------|
 |-----/6-6---6-6-6---6-5---3-|-------------|
 |-----/7-7---7-7-7---7-5---4-|-------------|
 |----------------------------|-5-----------|
 |----------------------------|-------------|
 |----------------------------|-------------|

E E E E E E E E E E Q H
 
 |----------------------------|-------------|
 |----------------------------|-------------|
 |----------------------------|-------------|
 |----------------------------|-------------|
 |-5-5--7---7---5---5---7-7---|-5-----------|
 |-3-3--3---3---3---3---3-3---|-3-----------|

|
 
 | |--3--| |--3--| |-3-|

| Q E E E E E E Q E E E Q H
 
 |----------------------------|-------------|
 |-----/6-6---6-6-6---6-5---3-|-------------|
 |-----/7-7---7-7-7---7-5---4-|-------------|
 |----------------------------|-5-----------|
 |----------------------------|-------------|
 |----------------------------|-------------|

To Coda
E E E E E E E E E E Q H E E E E E E E E
 
 |----------------------|-------------|----------------------|
 |----------------------|-------------|----------------------|
 |----------------------|-------------|----------------------|
 |-7-7--9-9--7-7--9-9---|-7-----------|----------------------|
 |-5-5--5-5--5-5--5-5---|-5-----------|-5-5--7-7--5-5--7-7---|
 |----------------------|-------------|-3-3--3-3--3-3--3-3---|

|
| |-3-| |-3-|
| Q Q Q Q E E E Q H Q Q Q Q E
 
 |-----/3---/3----------|-------------|-----/3---/3----------|
 |-----/3---/3---\5---3-|-------------|-----/3---/3---\5---3-|
 |---------------\5---3-|-------------|---------------\5---3-|
 |----------------------|-5-----------|----------------------|
 |----------------------|-------------|----------------------|
 |----------------------|-------------|----------------------|

E E Q H
 
 |-----------------------------------------------------------||
 |-----------------------------------------------------------||
 |-----------------------------------------------------------||
 |-----------------------------------------------------------||
 |-----------5-----------------------------------------------||
 |-----------3-----------------------------------------------||

|
 
 | |-3--| |--3--| |--3---| |--3--|

| A E Q E E E A E E E E E E
 
 |----------10---10----10-10-10-10------10--10-10-10-10-10---||
 |-11pb12==(11)-(11)---11-11-11-11b12==(11)-11-11-11-11-11r--||
 |-11pb12==(11)-(11)------------11b12==(11)-11-11-11-11-11r--||
 |-----------------------------------------------------------||
 |-----------------------------------------------------------||
 |-----------------------------------------------------------||

Guitar Solo
Gtr II-
G (pattern as verse)
 
 |---3----| |---3---| |---3----| |---3---|

[A] [E] [E] [E] [E] [E] [E] [A] [E] [E] [E] [E] [E] [E]  
 
 |-10------10--10---10-10-10---10--10------10--10---10-10-10---10--|
 |-11b12==(11)-11---11-11-11---11r-11b12==(11)-11---11-11-11---11r-|
 |-11b12==(11)-11---11-11-11---11r-11b12==(11)-11---11-11-11---11r-|
 |-----------------------------------------------------------------|
 |-----------------------------------------------------------------|
 |-----------------------------------------------------------------|

[G]  
 
 |---3----| |---3----| |---3----| |---3----|

[A] [E] [E] [E] [A] [E] [E] [E] [A] [E] [E] [E] [A] [E] [E] [E]  
 
 |-10------10--10---10--10------10--10---10--10------10--10---10--10------10--10---10--|
 |-11b12==(11)-11---11r-11b12==(11)-11---11r-11b12==(11)-11---11r-11b12==(11)-11---11r-|
 |-11b12==(11)-11---11r-11b12==(11)-11---11r-11b12==(11)-11---11r-11b12==(11)----------|
 |-------------------------------------------------------------------------------------|
 |-------------------------------------------------------------------------------------|
 |-------------------------------------------------------------------------------------|

[G]  
 
 |---3---| |---3---| |---3----| |---3---|

[E] [E] [E] [E] [E] [E] [A] [E] [E] [E] [E] [E] [E]  
 
 |-----------------------10------10--10---10-10-10---10--|
 |--------------------12-11b12==(11)-11---11-11-11---11r-|
 |-12-12---12-12-12---12-11b12==(11)-11---11-11-11---11r-|
 |-12-12---12-12-12---12---------------------------------|
 |-------------------------------------------------------|
 |-------------------------------------------------------|

[G]  
 
 |---3----| |---3---| |---3----| |---3---|

[A] [E] [E] [E] [E] [E] [E] [A] [E] [E] [E] [E] [E] [E]  
 
 |-10------10--10---10-10-10---10--10------10--10---10-10-10---10--|
 |-11b12==(11)-11---11-11-11---11r-11b12==(11)-11---11-11-11---11r-|
 |-11b12==(11)-11---11-11-11---11r-11b12==(11)-11---11-11-11---11--|
 |-----------------------------------------------------------------|
 |-----------------------------------------------------------------|
 |-----------------------------------------------------------------|

[C] [C]  
 
 |--3--| |--3--| |--3--| |--3--| |--3--| |--3--| |--3--| |--3--|

[E] [E] [E] [E] [E] [E] [E] [E] [E] [E] [E] [E] [E] [E] [E] [E] [E] [E] [E] [E] [E] [E] [E] [E]  
 
 |-----------------------------------|----------------------------------|
 |-/8-8---8-8-8---8-/8-8---8-8-8---8-|-/8-8---8-8-8---8-7-7---7-5-5---5-|
 |-/9-9---9-9-9---9-/9-9---9-9-9---9-|-/9-9---9-9-9---9-7-7---7-5-5---5-|
 |-----------------------------------|----------------------------------|
 |-----------------------------------|----------------------------------|
 |-----------------------------------|----------------------------------|

( Tab from: http://www.guitartabs.cc/tabs/b/berry_chuck/no_particular_place_to_go_tab.html )
[G] [G]  
 
 |--3--| |--3--| |--3--| |--3--| |--3--| |--3--| |--3--| |--3--|

E E E E E E E E E E E E E E E E E E E S S E E E E
 
 |----------------------------------|--------------------------3-----3-|
 |-/3-3---3-3-3---3-3-3---3-3-3---3-|-/6-6---6-6-6---6-5-3---8-3-----3-|
 |-/4-4---4-4-4---4-4-4---4-4-4---4-|-/7-7---7-7-7---7-5-3h4-9---4-----|
 |----------------------------------|----------------------------------|
 |----------------------------------|----------------------------------|
 |----------------------------------|----------------------------------|

[D] [C]  
 
 |--3--| |--3--| |--3--| |--3--| |--3--| |--3--| |--3--| |--3--|

E E E E E E E S S E E E E E E E E E E E E E E E E
 
 |----------------------------------|------------------------------------|
 |-/6-6---6-6-6---6-5-3---8-3-3---3-|-/6-6---6-6-6---6-/6-6---6\-5-3-----|
 |-/7-7---7-7-7---7-5-3h4-9-4-4---4-|-/7-7---7-7-7---7-/7-7---7\-5-3---4-|
 |----------------------------------|----------------------------------5-|
 |----------------------------------|------------------------------------|
 |----------------------------------|------------------------------------|

D.S. al Coda
E E E E E E E E E E Q H
 
 |-------------------------------------|-------------||
 |-------------------------------------|-------------||
 |-------------------------------------|-------------||
 |---------------------5---5---7---7---|-------------||
 |-5-5-------7-------7-3---3---3---3---|-5-----------||
 |-3-3-------3-------3-----------------|-3-----------||

|
 
 | |-----3-----| |--3--| |--3--|

| q Q Q E E E E E E E E Q H
 
 |-----6b6.5---6b6.5---3-5---3---------|-------------||
 |-3---5b5.5---5b5.5---3-5---3-6s5---x-|-3-----------||
 |-4---------------------------6s5-----|-4-----------||
 |-------------------------------------|-5-----------||
 |-------------------------------------|-------------||
 |-------------------------------------|-------------||

Guitar Solo
&
E E Q H
 
 |-----------------------------------------|
 |-----------------------------------------|
 |-----------------------------------------|
 |-----------------------------------------|
 |---5-------------------------------------|
 |---3-------------------------------------|

|
 
 | |---3---| |--3--| |--3--| |--3--|

| E E E E E E E E E E E E
 
 |-----------------------------------------|
 |-----15---15-15-15-15-----15-15-15-15-15-|
 |-/16-16---16-16-16-16-/16-16-16-16-16-16-|
 |-/17-17---17-17-17-17-/17-17-17-17-17-17-|
 |-----------------------------------------|
 |-----------------------------------------|

[G]  
 
 |---3---| |---3---| |---3---| |---3---|

[E] [E] [E] [E] [E] [E] [E] [E] [E] [E] [E] [E]  
 
 |-----------------------------------------------|
 |-----15---15-15-15---15-----15---15-15-15---15-|
 |-/16-16---16-16-16---16-/16-16---16-16-16---16-|
 |-/17-17---17-17-17---17-/17-17---17-17-17---17-|
 |-----------------------------------------------|
 |-----------------------------------------------|

[G]  
 
 |---3---| |---3---| |---3---| |---3---|

[E] [E] [E] [E] [E] [E] [E] [E] [E] [E] [E] [E]  
 
 |-----------------------------------------------|
 |-----15---15-15-15---15-----15---15-15-15---15-|
 |-/16-16---16-16-16---16-/16-16---16-16-16---16-|
 |-/17-17---17-17-17---17-/17-17---17-17-17---17-|
 |-----------------------------------------------|
 |-----------------------------------------------|

[G]  
 
 |--3--| |--3--|

T S. E E E E T S. E E E E
 
 |-5-6b6.5-3-3-3---3-5-6b6.5-3-3-3---3-|
 |-5-6b6.5-3-3-3---3-5-6b6.5-3-3-3---3-|
 |-------------------------------------|
 |-------------------------------------|
 |-------------------------------------|
 |-------------------------------------|

[G] [C]  
 
 |----3----| |--3--| |--3--| |--3--| |--3--| |--3--| |--3--| |--3--|

[E] [E] [E] [E] [E] [E] [E] [E] [E] [E] [E] [E] [E] [E] [E] [E] [E] [E] [E] [E] [E] [E] [E] [E]  
 
 |-6b6.5-3-----------5---3-----------------|----3---3-3-3---3----3---3-3-3---3-|
 |-6b6.5-3---5b5.5-3-5---3-6-5---3---3---5-|-/6-3---3-3-3---3----3---3-3-3---3-|
 |-----------5b5.5-3-------6-5---3-4-3---5-|-/6---------------/6---------------|
 |---------------------------------5-------|-----------------------------------|
 |-----------------------------------------|-----------------------------------|
 |-----------------------------------------|-----------------------------------|

[C] [G]  
 
 |--3--| |--3--| |--3--| |--3--| |--3--| |--3--| |--3--| |--3--|

[E] [E] [E] [E] [E] [E] [E] [E] [E] [E] [E] [E] [E] [E] [E] [E] [E] [E] [E] [E] [E] [E] [E] [E]  
 
 |----3---3----3---3----3---3----3---3-|----3---3----3---3----3---3----3---3-|
 |-/6-3---3-/6-3---3-/6-3---3-/6-3---3-|-/6-3---3-/6-3---3-/6-3---3-/6-3---3-|
 |-/6-------/6-------/6-------/6-------|-/6-------/6-------/6-------/6-------|
 |-------------------------------------|-------------------------------------|
 |-------------------------------------|-------------------------------------|
 |-------------------------------------|-------------------------------------|

[G]  
 
 |--3--| |--3--| |--3--| |--3--|

[E] [E] [E] [E] [E] [E] [E] [E] [E] [E] [E] [E]  
 
 |----3---3----3---3----3---3----3---3-|
 |-/6-3---3-/6-3---3-/6-3---3-/6-3---3-|
 |-/6-------/6-------/6-------/6-------|
 |-------------------------------------|
 |-------------------------------------|
 |-------------------------------------|

[D]  
 
 |--3--| |------3------| |------3------| |--3--|

[E] [E] [E] [E] [E] [E] [E] [E] [E] [E] [E] [E]  
 
 |-6-6---6-6b6.5-6b6.5---6b6.5-6b6.5-6b6.5---6b6.5-6-6---6-|
 |-6-6---6-6b6.5-6b6.5---6b6.5-6b6.5-6b6.5---6b6.5-6-6---6-|
 |---------------------------------------------------------|
 |---------------------------------------------------------|
 |---------------------------------------------------------|
 |---------------------------------------------------------|

[C]  
 
 |------3------| |------3------| |------3------| |--3--|

[E] [E] [E] [E] [E] [E] [E] [E] [E] [E] [E] [E]  
 
 |-6b6.5-6b6.5---6b6.5-6b6.5-6b6.5---6b6.5-6b6.5-6b6.5---6b6.5-6-6---6-|
 |-6b6.5-6b6.5---6b6.5-6b6.5-6b6.5---6b6.5-6b6.5-6b6.5---6b6.5-6-6---6-|
 |---------------------------------------------------------------------|
 |---------------------------------------------------------------------|
 |---------------------------------------------------------------------|
 |---------------------------------------------------------------------|

[G]  
 
 |--3--| |--3--|

[E] [E] [E] [E] [E] [E] [E] [E] [E] [E]  
 
 |-3-3---------------------|
 |-3-3-6-5---3-----3-5---5-|
 |-----6-5---3-4-4-3-5---5-|
 |-------------5-5---------|
 |-------------------------|
 |-------------------------|

E E Q H E E E E E E E E
 
 |-----------------------------|---------------------|
 |-----------------------------|---------------------|
 |-----------------------------|---------------------|
 |-----------------------------|---------------------|
 |-5---------------------------|-5-5-7-7---5-5-7-7---|
 |-3---------------------------|-3-3-3-3---3-3-3-3---|

|
 
 | |---3---| |-3-| |-3-|

| E E E E E E E E E E S S E E E S S E E E S S
 
 |---------3---3---3---3-------|---3---------3-------|
 |-5b6-----3---3---3---3---5-3-|---3---5-3---3---5-3-|
 |-5b6---------------------5-3-|-4-----5-3-4-----5-3-|
 |-----------------------------|-5---------5---------|
 |-----------------------------|---------------------|
 |-----------------------------|---------------------|

[G] [G]  
 
 |--3--| |--3--| |--3--| |--3--|

E E E S S E E E S S E E E E E E E E E E E E
 
 |---3---------3-------|---3-----3-----3---3-----3-----3-|
 |---3---5-3---3---5-3-|---3-----3-----3---3-----3-----3-|
 |-4-----5-3-4-----5-3-|-4-------------------------------|
 |-5---------5---------|-5-------------------------------|
 |---------------------|---------------------------------|
 |---------------------|---------------------------------|

[G] [C]  
 
 |----3-----| |--3--| |--3--| |--3--| |--3--|

E S S E E +E E E E E E E A E E E E E E E E E E
 
 |---3-3-3-5b5.5---(5)-5-3-------------|-----------------------------|
 |---3-3-3-5b5.5---(5)-5-3---5-3-----3-|-5b6r5-3-------5-5-3-------5-|
 |---------------------------5-3-----3-|-5b6r5-3---3---5-5-3---3---5-|
 |-------------------------------5-----|---------5-----------5-------|
 |-------------------------------------|-----------------------------|
 |-------------------------------------|-----------------------------|

[C] [G]  
 
 |--3--| |--3--| |--3--| |--3--| |--3--| |--3--|

[A] [E] [E] [E] [E] [E] [E] [E] [E] [E] [E] [E] [E] [E] [E] [E] [E] [E] [E] [E] [E] [E] [E]  
 
 |-----------------------------|----3---3----3---3----3---3----3---3-|
 |-5b6r5-3-------5-5-3-------5-|-/6-3---3-/6-3---3-/6-3---3-/6-3---3-|
 |-5b6r5-3---3---5-5-3---3---5-|-/6-------/6-------/6-------/6-------|
 |---------5-----------5-------|-------------------------------------|
 |-----------------------------|-------------------------------------|
 |-----------------------------|-------------------------------------|

[G]  
 
 |--3--| |--3--| |--3--| |--3--|

[E] [E] [E] [E] [E] [E] [E] [E] [E] [E] [E] [E]  
 
 |----3---3----3---3----3---3----3---3-|
 |-/6-3---3-/6-3---3-/6-3---3-/6-3---3-|
 |-/6-------/6-------/6-------/6-------|
 |-------------------------------------|
 |-------------------------------------|
 |-------------------------------------|

[D]  
 
 |--3--| |--3--| |-------3-------|

E E E E E E Q Q Q
 
 |----3---3-3-3---3-6b6.5---6b6.5---6b6.5---|
 |-/6-3---3-3-3---3-5b5.5---5b5.5---5b5.5---|
 |-/6---------------------------------------|
 |------------------------------------------|
 |------------------------------------------|
 |------------------------------------------|

[C]  
 
 |-------3-------| |-------3-------|

Q Q Q Q Q Q
 
 |-6b6.5---6b6.5---6b6.5---6b6.5---6b6.5---6b6.5---|
 |-5b5.5---5b5.5---5b5.5---5b5.5---5b5.5---5b5.5---|
 |-------------------------------------------------|
 |-------------------------------------------------|
 |-------------------------------------------------|
 |-------------------------------------------------|

E E E E E E E E Q E E +H
 
 |-----------------|---------------*|
 |-----------------|---------------*|
 |-----------------|----5-4-(4)----*|
 |-----------------|----4-3-(3)----*|
 |-5-5-7-7-5-5-7-7-|-5--6-5-(5)----*|
 |-3-3-3-3-3-3-3-3-|-3--4-3-(3)----*|

|
| Q E E E E E E Q E E +H
 
 |-3---------------|---------------*|
 |-3---------------|---------------*|
 |-------------0-0-|-0--5-4-(4)----*|
 |-----3-3-2-2-1-1-|-0--4-3-(3)----*|
 |-----------------|----6-5-(5)----*|
 |-----------------|----4-3-(3)----*|


Important: The song above is NOT stored on the Chordie server. The original song is hosted at www.guitartabs.cc. Chordie works as a search engine and provides on-the-fly formatting. Chordie does not index songs against artists'/composers' will. To remove this song please click here.

Text color:
Chord color:
Chord grids: 
Font size:    
Page size: 

A C D E G
Rate #2 of 10 versions

Login - add to songbook

SHARE PAGE  




You need to log in to post comments