Guitar Tabs, Chords and Lyrics
Server problems seems to be fixed. Chordie has been experiencing problems with songs disappearing. These issues now seems to be fixed, but still verifying the fix. If you find anything strange, please email admin@chordie.com.


Alaska   Between the Buried and Me

 
 |-------------7-12h15p12-----------|-----------------14-17h19p15----------|
 |-----------8------------13--------|--------------15-------------17-------|
 |---------9-----------------12-----|-----------14-------------------16----|
 |-------9----------------------14--|--------16-------------------------17-|
 |--7-10----------------------------|--15-17-------------------------------|
 |----------------------------------|--------------------------------------|

 


 


 Gtr 2


 

 
 |----------------------------------|--------------------------------------|
 |----------------------------------|--------------------------------------|
 |----------------5-----------------|-----7---------------9----------------|
 |--2-------------5-----------------|-----7---------------9----------------|
 |--2-------------3-----------------|-----5---------------7----------------|
 |--0-------------------------------|--------------------------------------|

 


 


 Gtr 1


 

 
 |--------------------20-19-17----------|-----------------------------------|
 |-----------16-17-19----------20-19-17-|--16-17-19-17-16-------------------|
 |--14-16-17----------------------------|-----------------17-16-------------|
 |--------------------------------------|-----------------------17-19-16----|
 |--------------------------------------|--------------------------------18-|
 |--------------------------------------|-----------------------------------|

 


 


 Gtr 2


 

 
 |--------------------------------------|-----------------------------------|
 |--------------------------------------|-----------------------------------|
 |--------------------------------------|--4-----------------4--------------|
 |--7-----------------4-----------------|--4-----------------4--------------|
 |--7-----------------4-----------------|--2-----------------2--------------|
 |--5-----------------2-----------------|-----------------------------------|

 


 


 Gtr 1


 

 
 |-----------------------|------------|----------7h12t15p12-7-----------|
 |-----------------------|------------|--------8--------------8---------|
 |-----------------------|------------|------9------------------9-------|
 |-----------------------|---------17-|---------------------------9-----|
 |--19-------------------|-----14-----|--7--------------------------7-5-|
 |-----------------------|-12---------|---------------------------------|

 


 


 Gtr 2


 

 
 |-----------------------|------------|---------------------------------|
 |-----------------------|------------|---------------------------------|
 |-----------------------|------------|---------------------------------|
 |--2--------------------|--2---------|----------5----------------------|
 |--2--7-6-3-2-----------|--2---------|----------3--------------5-------|
 |--0----------5-3-2-3-5-|--0---------|-------------------------3-------|

 


 *


 


 This Section x4


 Gtr 1


 

 
 |----------------------------|-----------------15-14---11h12p11---------|
 |----------------------7---8-|--/13p12------12--------------------12----|
 |--------------8-------------|-----------12--------------------------11-|
 |--------9--10---9--9--------|------------------------------------------|
 |--7--7----------------------|------------------------------------------|
 |----------------------------|------------------------------------------|

 


 


 Gtr 2


 

 
 |----------------------------|------------------------------------------|
 |----------------------------|------------------------------------------|
 |----------------------------|------------------------------------------|
 |----------------------------|------------------------------------------|
 |--2--------2----------------|------------------------------------------|
 |--0--------0----------0--0--|------0--0-----------0-0-0----------------|

 


 * * * * * * * * *


 Gtr 1


 

 
 |--------------------------|------14h15p14--------------15-----17\\\\\\-|
 |--------------------15-17-|--/20----------12--------15-----------------|
 |--------12h14-16-12-------|----------------------16--------------------|
 |--14-14-------------------|-------------------17-----------------------|
 |--------------------------|--------------------------------------------|
 |--------------------------|--------------------------------------------|

 


 


 Gtr 2


 

 
 |--------------------------|--------------------------------------------|
 |--------------------------|--------------------------------------------|
 |--------4--5--7-----------|------4--5--7-------------------------------|
 |-----5--------------------|---5----------------------------------------|
 |--3--------------7--------|---------------5------------5------5-5------|
 |--------------------------|---------------3------------3------3-3------|

 


 * * * *


 Section Ends


 


 Gtr 1


 

 
 |-----------------------|----------------|------------------------|
 |-----------------------|----------------|------------------------|
 |-----------------------|----------------|----------------------4-|
 |--------9----7---5-----|------------9-7-|----------------------3-|
 |--7--7----10---9-----7-|--9-6-7-9-6-----|----------------------2-|
 |-----------------------|----------------|-----0--0--0--0---------|

 


 * * * *


 Gtr 2


 

 
 |-----------------------|----------------|------------------------|
 |-----------------------|----------------|------------------------|
 |-----------------------|----------------|----------------------4-|
 |-----------------------|--------------7-|----------------------3-|
 |-----------------------|--6"----------9-|----------------------2-|
 |--0-0-0---0-0-0--0-0-0-|-----8"---7"----|-----0--0--0--0---------|

 


 * * * * * * * * * * * * *


 


 This Section x2


 Gtr 1 & 2


 

 
 |------------------------|------------------------|
 |------------------------|------------------------|
 |------------------------|------------------------|
 |------5"----------5"----|------5"----------5"----|
 |----------4-----------4-|----------4-----------4-|
 |--3"------2---3"------2-|--3"------2---3"------2-|

 


 


 Gtr 1 & 2


 

 
 |--------------------------------|
 |--------------------------------|
 |--------------------------------|
 |-----------7-6-----4-3-----5"---|
 |-----------5-4-----2-1----------|
 |--5-2-3-2------3-0-----3-0----4-| Section Ends

 


 * * * * * * * *


 


 Gtr 1


 

 
 |------------------------|------------------------|
 |------------------------|------------------------|
 |------------------------|------------------------|
 |------5"----------5"----|------5"----------5"----|
 |----------4-----------4-|----------4-----------4-|
 |--3"------2---3"------2-|--3"------2---3"------2-|

 


 


 Gtr 2


 

 
 |------------------------|------------------------|
 |------------------------|------------------------|
 |------------------------|------------------------|
 |------8"--7-------8"--7-|------8"--7-------8"--7-|
 |------------------------|------------------------|
 |--6"------5---6"------5-|--6"------5---6"------5-|

 


 


 Gtr 1 & 2


 

 
 |--------------------------------|
 |--------------------------------|
 |--------------------------------|
 |-----------7-6-----4-3-----5"---|
 |-----------5-4-----2-1----------|
 |--5-2-3-2------3-0-----3-0----4-|

 


 * * * * * * * *


 


 Gtr 1 & 2


 

 
 |------------------------|------------------------|
 |------------------------|------------------------|
 |------------------------|------------------------|
 |------5"----------5"----|------5"----------5"----|
 |----------4-----------4-|----------4-----------4-|
 |--3"------2---3"------2-|--3"------2---3"------2-|

 


 


 Gtr 1 & 2


 

 
 |--------------------------------|
 |--------------------------------|
 |--------------------------------|
 |-----------7-6-----4-3-----5"---|
 |-----------5-4-----2-1----------|
 |--5-2-3-2------3-0-----3-0----4-| 

 


 * * * * * * * *


 


 Gtr 1 & 2


 

 
 |--------------------------|
 |--------------------------|
 |--------------------------|
 |--------------------------|
 |--5-4-3-6-5-4-8-7-6-5-4-3-|
 |--3-2-1-4-3-2-6-5-4-3-2-1-|

 


 * * * * * * * *


 


 Gtr 1 & 2


 

 
 |------------------------------------------|
 |------------------------------------------|
 |------------------------------------------| x4
 |------3---------------------[3]-----------|
 |--7-4-1-3--3-5-4-3--3-4-5-4-----5-4-5-4-3-|
 |--5-2---1--1-3-2-1--1-2-3-2-----3-2-3-2-1-|

 


 * * * * * * * * * * * * * * * * *


 


 Gtr 1 & 2


 |----|


 |----|


 |----|


 |----|


 |--3-|


 |--1-|


 [ Tab from: bttp://www.guitartabs.cc/tabs/b/between_tbe_buried_and_me/alaska_tab_ver_6.btml ] 


 Gtr 1 & 2


 

 
 |-------------------|
 |-------------------|
 |-------------------| x3
 |-----------3-------|
 |--7--4--4--1--3--3-|
 |--5--2--2-----1--1-|

 


 * * * * * *


 Gtr 1 Gtr 2


 

 
 |-------------------|-------------------|
 |-------------------|-------------------|
 |-----------5-------|-----------5--4----|
 |-----------7--6--7-|-----------7--6--7-|
 |--7--4--4----------|--7--4--4----------|
 |--5--2--2--5--4--5-|--5--2--2--5--4--5-|

 


 * * * * * *


 


 Gtr 1 & 2


 

 
 |-----------------|
 |-----------------|
 |-----------------| x3
 |-----------3-----|
 |--7---4----1---3-|
 |--5---2--------1-|

 


 * *


 


 Gtr 1 Gtr 2


 

 
 |-------------------|-------------------|
 |-------------------|-------------------|
 |-----------5--4--5-|-----------5--4--5-|
 |-----------7--6--7-|-----------7--6--7-|
 |--7--4--4----------|--7--4--4----------|
 |--5--2--2--5--4--5-|--5--2--2--5--4--5-|

 


 * * * * * *


 


 Gtr 1


 

 
 |-------------------|----------------------|------------------|
 |-------------------|----------------------|------------------|
 |-------------------|----------------------|------------------|
 |-------------------|----------------------|------------------|
 |-----3--------2----|--1h4p1---1h4---1---1-|----2--1----------|
 |--5-----5--4-----4-|--------3-----3---3---|--2-------3--2--0-|

 


 * * * * *


 Gtr 2


 

 
 |-------------------|----------------------|------------------|
 |-------------------|----------------------|------------------|
 |--5--------4-------|----------------------|------------------|
 |--7--------6-------|----------------------|------------------|
 |-------------------|--1h4p1---1h4---1---1-|----2--1----------|
 |--5--------4-------|--------3-----3---3---|--2-------3--2--0-|

 


 * * * * * *


 Gtr 1 & 2


 

 
 |--------------------|----------------------|
 |--------------------|----------------------|
 |--------------------|----------------------|
 |--------------------|----------------------|
 |----5-4-------------|--------------1-------|
 |--3-----5-6-3-1-1-1-|--1-1-1-1-1-1---3-2-0-| \

 


 * * * * * * * * * \


 \ x3


 Gtr 1 & 2 /


 

 
 |------------------|--------------------| /
 |------------------|--------------------| /
 |------------------|--------------------| /
 |------------------|--1-------[3]-------| /
 |----5-4---------2-|----2-3-------------| /
 |--3-----5-6-2-3---|--------4-----0-3-0-|

 


 * * *


 Gtr 1 & 2


 

 
 |--------------------|----------------------|--------------|--------------|
 |--------------------|----------------------|--------------|--------------|
 |--------------------|----------------------|--------------|--------------|
 |--------------------|----------------------|--------------|--------------|
 |----5-4-------------|--------------1-------|----5-4-------|----7-6-------|
 |--3-----5-6-3-1-1-1-|--1-1-1-1-1-1---3-2-0-|--3-----5-6-3-|--5-----7-8-5-|

 


 * * * * * * * * *


 Gtr 1 & 2


 

 
 |---------------|--------------|--------------|
 |---------------|--------------|--------------|
 |---------------|-------8h11p8-|--------------|
 |---------------|--7-10--------|--9----8----5-|
 |----9-8--------|--------------|--7----6----3-|
 |--7-----9-10-7-|--------------|--7----6----3-|

 


 


 Gtr 1 & 2 Gtr 1 & 2


 

 
 |-----------------|------------------| |-------------|--------------|
 |-----------------|------------------| |-------------|--------------|
 |-----------------|------------------| ----> |-------------|--------------|
 |-----------------|-10-----9-----5---|x2 then|----5"-------|--------------|
 |-2h3-6p5-8p7-3h4-|----8-7---7-6---6-| ----> |--------4--5-|-6-5-4-5----6-|
 |-2h3-6p5-8p7-3h4-|------------------| |-3"-----2--3-|-4-3-2-3----4-|

 


 * * * * *


 Gtr 1


 

 
 |--------------|--------------|
 |--------------|--------------|
 |--------------|--------------|
 |-----5"-------|--------------|
 |---------4--5-|-6-5-4-5----6-|
 |--3"-----2--3-|-4-3-2-3----4-|

 


 * * *


 Gtr 2


 

 
 |--------------|--------------|
 |--------------|--------------|
 |--------------|--------------|
 |-----5"-------|--------------|
 |---------4--5-|-6-5-4-5----6-|
 |--3"-----2--3-|-4-3-2-3----4-|

 


 * * *


 Gtr 1 & 2


 

 
 |-----------------|------------------|
 |-----------------|------------------|
 |-----------------|------------------|
 |-----------------|-10-----9-----5---|
 |-2h3-6p5-8p7-3h4-|----8-7---7-6---6-|
 |-2h3-6p5-8p7-3h4-|------------------|

 


 * *


 Gtr 1 & 2


 

 
 |--------------|-------------|-----------------|------------------|
 |--------------|-------------|-----------------|------------------|
 |-------8h11p8-|-------------|-----------------|------------------|
 |--7-10--------|-9----8----5-|-----------------|-10-----9-----5---|
 |--------------|-7----6----3-|-2h3-6p5-8p7-3h4-|----8-7---7-6---6-|
 |--------------|-7----6----3-|-2h3-6p5-8p7-3h4-|------------------|

 


 * *


 Gtr 1 & 2


 

 
 |-----------------|------------------|-------------|
 |-----------------|------------------|-------------|
 |-----------------|------------------|-------------|
 |-----------------|-10-----9-----5---|-5-------1---|
 |-2h3-6p5-8p7-3h4-|----8-7---7-6---6-|---6-------0-|
 |-2h3-6p5-8p7-3h4-|------------------|-------------|

 


 * *


 Gtr 1 & 2


 

 
 |---------------------------------|------------------|
 |---------------------------------|------------------|
 |---------------------------------|------------------|
 |---------------------------------|--6---------6--9--|
 |----------6--------3-----6-----5-|--8---------8--11-|
 |--0-0-3-4----7-4-5---5-8---8-7---|-----7-7-7--------|

 


 * * * * *


 


 Gr 1 & 2 The guitarist use a tremelo bar on the end on each open note


 

 
 |-------------------|----------------------|--------------------|
 |-------------------|----------------------|--------------------|
 |-------------------|----------------------|--------------------|
 |-------------------|----------------------|--4-3-4-7---4-3-4-7-|
 |-3-2-3-6---3-2-3-6-|--6-5-6-9----6-5-6-9--|--6-5-6-9---6-5-6-9-|
 |-5-4-5-8---5-4-5-8-|--8-7-8-11---8-7-8-11-|--------------------|

 


 * * * * * * * * * * * * * * * * * *


 Gtr 1 & 2


 

 
 |------------------------------| This Section x 2
 |------------------------------|
 |------------------------------|
 |--7-6-7-10---7-6-7-6----------|
 |--9-8-9-12---9-8-9-8--6--5--1-|
 |------------------------------|

 


 * * * * * *


 


 Gtr 1 & 2


 

 
 |----------------|
 |----------------|
 |----------------|
 |----------------|
 |--0---3-3---3-2-|
 |----------------|

 


 


 Gtr 1 & 2


 

 
 |------------------|------------------|
 |------------------|------------------|
 |------------------|------------------| x 2
 |------------------|--3-----4-7-4-----|
 |--------3-6-3-2-5-|----5-6-------6-3-|
 |--5-8-5-----------|------------------|

 


 


 Gtr 1


 

 
 |-------------------|-------------------|
 |-------------------|-------------------|
 |-------------------|--6-----7-10-7-----|
 |---------6-9-6-5-8-|----8-9--------9-6-|
 |--8-11-8-----------|-------------------|
 |-------------------|-------------------|

 


 


 Gtr 2


 

 
 |------------------|------------------|
 |------------------|------------------|
 |------------------|------------------|
 |------------------|--3-----4-7-4-----|
 |--------3-6-3-2-5-|----5-6-------6-3-|
 |--5-8-5-----------|------------------|

 


 


 Gtr 1


 

 
 |-------------------|-------------------|
 |-------------------|-------------------|
 |-------------------|--6-----7-10-7-----|
 |---------6-9-6-5-8-|----8-9--------[8]-|
 |--8-11-8-----------|-------------------|
 |-------------------|-------------------|

 


 


 Gtr 2


 

 
 |------------------|------------------|
 |------------------|------------------|
 |------------------|------------------|
 |------------------|--3-----4-7-4-[5]-|
 |--------3-6-3-2-5-|----5-6-----------|
 |--5-8-5-----------|------------------|

 


 


 Gtr 1 & 2


 

 
 |------------------|-------------|
 |------------------|-------------|
 |------------------|-------------|
 |-10-----9-----5---|-5-------1---|
 |----8-7---7-6---6-|---6-------0-|
 |------------------|-------------|

 


 * *


 


 Gtr 1 & 2


 

 
 |-----------------|----------------|-----------------------------|
 |-----------------|----------------|-----------------------------|
 |-----------------|----------------|-----------------------------|
 |-----------------|----------------|-----------------------------|
 |----------6--2-2-|-----2-2-2----2-|--2-2------2-2-2-2------2--2-|
 |--0-0-3-4----0-0-|-----0-0-0----0-|--0-0------0-0-0-0------0--0-|

 


 * * * * * * * * * * * * * * * *


 


 Gtr 1 & 2


 

 
 |----------------|------------------------------|
 |----------------|------------------------------|
 |----------------|------------------------------|
 |----------------|------------------------------|
 |-----2-2-2----2-|--2-2------2-2-2-2------2-2-2-|
 |-----0-0-0----0-|--0-0------0-0-0-0------0-0-0-|

 


 * * * * * * * * * * * * *


 


 Gtr 1 & 2


 

 
 |---------------------------------|-------------------------------|
 |---------------------------------|-------------------------------|
 |---------------------------------|-------------------------------| x8
 |-1h2-1h2-1h2-------1h2p1h2---1h2-|-----1h2---------1h2p1h2---1---|
 |-1h2-1h2-1h2-------1h2p1h2---1h2-|-----1h2---------1h2p1h2---1---|
 |-------------0-0-0---------0-----|-0-0-----0-0-0-0---------0---0-|

 


 * * * * * * * * * * * *


 Gtr 1 & 2


 

 
 |------------|
 |------------|
 |------------|
 |------------|
 |--2---------|
 |--0---------|


Important: The song above is NOT stored on the Chordie server. The original song is hosted at www.guitartabs.cc. Chordie works as a search engine and provides on-the-fly formatting. Chordie does not index songs against artists'/composers' will. To remove this song please click here.

This song is displayed as text-only. Transposing and tuning is only available for chordpro-songs.
Rate #2 of 3 versions

Jango Player

Login - add to songbook

SHARE PAGE  



You need to log in to post comments