Guitar Tabs, Chords and Lyrics
Server problems seems to be fixed. Chordie has been experiencing problems with songs disappearing. These issues now seems to be fixed, but still verifying the fix. If you find anything strange, please email admin@chordie.com.


Different People  Biffy Clyro

BIFFY CLYRO - DIFFERENT PEOPLE
Transcribed by Rob2.0
D Standard Tuning (DGCFAD)
Intro (after synth pads):
[(4/4)]  
[D]W +W [Aadd11]W +W [Bm]W +W [Aadd11]H.. E +E Q Q Q E
 
 D|-----|-------|-0---|-(0)---|-0---|-(0)---|-0------0-|-(0)-------0-|
 A|-9---|-(9)---|-0---|-(0)---|-5---|-(5)---|-0--------|-----0---0---|
 F|-9---|-(9)---|-8---|-(8)---|-6---|-(6)---|-8--------|-------8-----|
 C|-9---|-(9)---|-9---|-(9)---|-6---|-(6)---|-9--------|-------------|
 G|-7---|-(7)---|-9---|-(9)---|-4---|-(4)---|-9--------|-------------|
 D|-0---|-(0)---|-7---|-(7)---|-----|-------|-7--------|-------------|

[D]W +W [Aadd11]H.. E +E Q Q E E E [Bm]W +W [Aadd11]W +W
 
 D|-----|-------|-0---0-|-(0)-----0-0-0-|-0---|-(0)---|-0---|-(0)---|
 A|-9---|-(9)---|-0-----|-----0---0-0-0-|-5---|-(5)---|-0---|-(0)---|
 F|-9---|-(9)---|-8-----|-------8-8-8-8-|-6---|-(6)---|-8---|-(8)---|
 C|-9---|-(9)---|-9-----|---------------|-6---|-(6)---|-9---|-(9)---|
 G|-7---|-(7)---|-9-----|---------------|-4---|-(4)---|-9---|-(9)---|
 D|-0---|-(0)---|-7-----|---------------|-----|-------|-7---|-(7)---|

[D]H +E E E [Gadd9]E +H +E E E E [Aadd11]H +E E E [Bm]E +Q. Q E E E
 
 D||--0---------0-|-(0)----0-0-0-|-0-----0-0-0-|-(0)---0--0-0-0--||
 A||O-0---------0-|-(0)----0-0-0-|-0-----0-0-5-|-(5)---5--5-5-0-O||
 F||--x---------6-|-(6)----6-6-6-|-8-----8-8-6-|-(6)---6--6-6----||
 C||--6-----6-6-7-|-(7)----7-7-7-|-9-----9-9-6-|-(6)---6---------||
 G||O-7-----7-7-7-|-(7)----------|-9---------4-|-(4)---4--------O||
 D||--4-----4-0-5-|-(5)----------|-7-----------|-----------------||

[D]H+E E E E +E E E E +E E E E [Cadd9](etc.) [Bm] [A]H +E E E [A/E]E +E E E [A/F#]Q E E [Gadd9]E
 
 D|-----------|----------------0-|-0-|---|-0-|---|------------|------------------|
 A|-9---------|----------------0-|-7-|---|-5-|---|-4----4-4-4-|-(4)-4-4-4--4-4-0-|
 F|-9---------|------------------|-7-|---|-6-|---|-4----4-4-4-|-(4)-4-4-4--4-4-6-|
 C|-9---------|------------------|-7-|---|-6-|---|-4----4-4-4-|-(4)-4-4-4--4-4-7-|
 G|-7---------|------------------|-5-|---|-4-|---|-2----2-2-x-|-(x)-x-x-x--x-x-7-|
 D|-0---------|------------------|---|---|---|---|----------2-|-(2)-2-2-4--4-4-5-|

(Strumming rhythm shown at top of tab)
+[Gadd9]H E E E E +H E E E E +H E E E [D/F#]E +E E E[G5] Q E E [Aadd11]E
 
 D|-------0-------|-------0-------|-------0-------|----------------0-|
 A|-(0)-----0-----|---------0-----|---------0-----|----------------0-|
 F|-(6)-------6---|-----------6---|-----------6---|----------------8-|
 C|-(7)---------7-|-(7)---------7-|-(7)---------6-|-(6)-6-6-7--7-7-9-|
 G|-(7)---------7-|-(7)---------7-|-(7)---------7-|-(7)-7-7-7--7-7-9-|
 D|-(5)---------5-|-(5)---------5-|-(5)---------4-|-(4)-4-4-5--5-5-7-|

+[Aadd11]H E E E E +H E E E E +H E E E E +W
 
 D|-------0-------|-------0-------|-------0-------|---------|
 A|-(0)-----0-----|---------0-----|---------0-----|---------|
 F|-(8)-------8---|-----------8---|-----------8---|---------|
 C|-(9)---------9-|-(9)---------9-|-(9)---------9-|---------|
 G|-(9)---------9-|-(9)---------9-|-(9)---------9-|---------|
 D|-(7)---------7-|-(7)---------7-|-(7)---------7-|---------|

NOTE: From here until the next chord section, time signature alternates between 1
bar of 7/8 and 1 bar of 4/4
[D] S S S S S S S S S S S S S S S S S S S S S S S S S S S S S S
 
 D|-------------------------------|-----------------------------------|
 A|-9p0-12p0-7h9-0-9p0-12p0-7h9-0-|-9p0-12p0-7h9-0-9p0-12p0-7h9-0-5h7-|
 F|-------------------------------|-----------------------------------|
 C|-------------------------------|-----------------------------------|
 G|-------------------------------|-----------------------------------|
 D|-------------------------------|-----------------------------------|

[A] S S S S S S S S S S S S S S S S S S S S S S S S S S S S S S
 
 D|-----------------------------|---------------------------------|
 A|-4p0-5p0-7p0-0-4p0-5p0-7p0-0-|-4p0-5p0-7p0-0-4p0-5p0-7p0-0-2h4-|
 F|-----------------------------|---------------------------------|
 C|-----------------------------|---------------------------------|
 G|-----------------------------|---------------------------------|
 D|-----------------------------|---------------------------------|

[Bm] S S S S S S S S S S S S S S S S S S S S S S S S S S S S S S
 
 D|-----------------------------|---------------------------------|
 A|-5p0-7p0-9p0-0-5p0-7p0-9p0-0-|-5p0-7p0-9p0-0-5p0-7p0-9p0-0-4h5-|
 F|-----------------------------|---------------------------------|
 C|-----------------------------|---------------------------------|
 G|-----------------------------|---------------------------------|
 D|-----------------------------|---------------------------------|

[A] S S S S S S S S S S S S S S S S S S S S S S S S S S S E.
 
 D|-----------------------------|-----------------------------|
 A|-4p0-5p0-7p0-0-4p0-5p0-7p0-0-|-4p0-5p0-7p0-0-4p0-5p0-7p0-9-|
 F|-----------------------------|-----------------------------|
 C|-----------------------------|-----------------------------|
 G|-----------------------------|-----------------------------|
 D|-----------------------------|-----------------------------|

[D] +H.. +H.. S S [A]H.. +H.. S S [Bm] H.. +H.. S S [A]H.. +H.. S S
 
 D|-------|-----------|----|------------|-----|-----------|-----|-------------|
 A|-(9)---|-(9)---9h10\7---|-(7)---9h10-|-9---|-(9)---9h10/12---|-(12)---\5p0-|
 F|-------|-----------|----|------------|-----|-----------|-----|-------------|
 C|-------|-----------|----|------------|-----|-----------|-----|-------------|
 G|-------|-----------|----|------------|-----|-----------|-----|-------------|
 D|-------|-----------|----|------------|-----|-----------|-----|-------------|

[D] S S S S S S S [G]S S S S S S S [A] S S S S S S S [Bm]S S S S S S S S S
 
 D||----------4p0-0---------------|---------4p0-0--------------------||
 A||o-4p0-5p0-------4p0-5p0-7p0-5-|-4p0-5p0-------4p0-5p0-7p0-9p0-0-o||
 F||------------------------------|----------------------------------||
 C||------------------------------|----------------------------------||
 G||o-----------------------------|----------------------------------||
 D||------------------------------|----------------------------------||

[D] S S S S S S S [G]S S S S S S S [A]S S S S S S S [Bm]S S S S S S S S S
 
 D||------------16p0-0-------------------|-----------16p0-0------------------------|
 A||o-16p0-17p0--------16p0-17p0-19p0-17-|-16p0-17p0--------16p0-17p0-19p0-21p0-0-o|
 F||-------------------------------------|-----------------------------------------|
 C||-------------------------------------|-----------------------------------------|
 G||o------------------------------------|----------------------------------------o|
 D||-------------------------------------|-----------------------------------------|

(Straight 4/4 time)
Unless otherwise notated, strum each chord as sixteenths
[D] [C] [Bm] [A]Q +S S S [/E]E S S [/F#]E S S [G]S
 
 D|-----------|-0-|-0-|--------------------------|
 A|-9---------|-7-|-5-|-4----4-4-4--4-4-4--4-4---|
 F|-9---------|-7-|-6-|-4----4-4-4--4-4-4--4-4-6-|
 C|-9---------|-7-|-6-|-4----4-4-4--4-4-4--4-4-7-|
 G|-7---------|-5-|-4-|-2----2-2-x--x-x-x--x-x-7-|
 D|-0---------|---|---|----------2--2-2-4--4-4-5-|

+S E E E E [A]S +S
 
 D|--------------------------|-----------------------|-----7---|---|
 A|--------------------------|-----------------------|-----7---|---|
 F|-(6)-14--13---9-----------|-6---------------------|-----8---|---|
 C|-(7)--------------9--11---|-7-------4--6--7--6--9-|-(9)-9---|---|
 G|-(7)-12--11---7---0--0--0-|-7---------------------|-----9---|---|
 D|-(5)--------------7--9----|-5-------2--4--5--4--7-|-(7)-7---|---|

(Alternating 7/8 and 4/4)
[D]  
 
 D|---|---|

A|-9-|---|
F|-9-|---|
C|-9-|---|
G|-7-|---|
 
 D|---|---|

[A]S S S S S S S S S S S S S S S S S S S S S S S S S S S S S S
 
 D|-----------------------------|---------------------------------|
 A|-4p0-5p0-7p0-0-4p0-5p0-7p0-0-|-4p0-5p0-7p0-0-4p0-5p0-7p0-0-2h4-|
 F|-----------------------------|---------------------------------|
 C|-----------------------------|---------------------------------|
 G|-----------------------------|---------------------------------|
 D|-----------------------------|---------------------------------|

[Bm] S S S S S S S S S S S S S S S S S S S S S S S S S S S S S S
 
 D|-----------------------------|---------------------------------|
 A|-5p0-7p0-9p0-0-5p0-7p0-9p0-0-|-5p0-7p0-9p0-0-5p0-7p0-9p0-0-4h5-|
 F|-----------------------------|---------------------------------|
 C|-----------------------------|---------------------------------|
 G|-----------------------------|---------------------------------|
 D|-----------------------------|---------------------------------|

[A] S S S S S S S S S S S S S S S S S S S S S S S S S S S S S S
 
 D|-----------------------------|---------------------------------|
 A|-4p0-5p0-7p0-0-4p0-5p0-7p0-0-|-4p0-5p0-7p0-0-4p0-5p0-7p0-9p0-0-|
 F|-----------------------------|---------------------------------|
 C|-----------------------------|---------------------------------|
 G|-----------------------------|---------------------------------|
 D|-----------------------------|---------------------------------|

[D] S S S S S S S S S S S S S S S S S S S S S S S S S S S S S S
 
 D|-------------------------------|-----------------------------------|
 A|-9p0-12p0-7h9-0-9p0-12p0-7h9-0-|-9p0-12p0-7h9-0-9p0-12p0-7h9-0-5h7-|
 F|-------------------------------|-----------------------------------|
 C|-------------------------------|-----------------------------------|
 G|-------------------------------|-----------------------------------|
 D|-------------------------------|-----------------------------------|

[A] S S S S S S S S S S S S S S S S S S S S S S S S S S S S S S
 
 D|-----------------------------|---------------------------------|
 A|-4p0-5p0-7p0-0-4p0-5p0-7p0-0-|-4p0-5p0-7p0-0-4p0-5p0-7p0-0-2h4-|
 F|-----------------------------|---------------------------------|
 C|-----------------------------|---------------------------------|
 G|-----------------------------|---------------------------------|
 D|-----------------------------|---------------------------------|

[Bm] S S S S S S S S S S S S S S S S S S S S S S S S S S S S S S
 
 D|-----------------------------|---------------------------------|
 A|-5p0-7p0-9p0-0-5p0-7p0-9p0-0-|-5p0-7p0-9p0-0-5p0-7p0-9p0-0-4h5-|
 F|-----------------------------|---------------------------------|
 C|-----------------------------|---------------------------------|
 G|-----------------------------|---------------------------------|
 D|-----------------------------|---------------------------------|

[A]S S S S S S S S S S S S S S S S S S S S S S S S S S S S S S
 
 D|-----------------------------|---------------------------------|
 A|-4p0-5p0-7p0-0-4p0-5p0-7p0-0-|-4p0-5p0-7p0-0-4p0-5p0-7p0-9p0-0-|
 F|-----------------------------|---------------------------------|
 C|-----------------------------|---------------------------------|
 G|-----------------------------|---------------------------------|
 D|-----------------------------|---------------------------------|

[D] S S S S S S S [G]S S S S S S S [A]S S S S S S S [Bm]S S S S S S S S S
 
 D||------------16p0-0-------------------|-----------16p0-0------------------------|
 A||o-16p0-17p0--------16p0-17p0-19p0-17-|-16p0-17p0--------16p0-17p0-19p0-21p0-0-o|
 F||-------------------------------------|-----------------------------------------|
 C||-------------------------------------|-----------------------------------------|
 G||o------------------------------------|----------------------------------------o|
 D||-------------------------------------|-----------------------------------------|

(Straight 4/4 time)
Unless otherwise notated, strum each chord as sixteenths
[D] [C] [Bm] [A]Q +S S S [/E]E S S [/F#]E S S [G]S
 
 D|-----------|-0-|-0-|--------------------------|
 A|-9---------|-7-|-5-|-4----4-4-4--4-4-4--4-4---|
 F|-9---------|-7-|-6-|-4----4-4-4--4-4-4--4-4-6-|
 C|-9---------|-7-|-6-|-4----4-4-4--4-4-4--4-4-7-|
 G|-7---------|-5-|-4-|-2----2-2-x--x-x-x--x-x-7-|
 D|-0---------|---|---|----------2--2-2-4--4-4-5-|

+S E E E E [A]S +S
 
 D|--------------------------|-----------------------|-----7---|---|
 A|--------------------------|-----------------------|-----7---|---|
 F|-(6)-14--13---9-----------|-6---------------------|-----8---|---|
 C|-(7)--------------9--11---|-7-------4--6--7--6--9-|-(9)-9---|---|
 G|-(7)-12--11---7---0--0--0-|-7---------------------|-----9---|---|
 D|-(5)--------------7--9----|-5-------2--4--5--4--7-|-(7)-7---|---|

[D] [C] [Bm] [A]Q +S S S [/E]E S S [/F#]E S S [G]S
 
 D|-----------|-0-|-0-|--------------------------|
 A|-9---------|-7-|-5-|-4----4-4-4--4-4-4--4-4---|
 F|-9---------|-7-|-6-|-4----4-4-4--4-4-4--4-4-6-|
 C|-9---------|-7-|-6-|-4----4-4-4--4-4-4--4-4-7-|
 G|-7---------|-5-|-4-|-2----2-2-x--x-x-x--x-x-7-|
 D|-0---------|---|---|----------2--2-2-4--4-4-5-|

+S E E E E [A]S +S
 
 D|--------------------------|-----------------------|-----7---|---|
 A|--------------------------|-----------------------|-----7---|---|
 F|-(6)-14--13---9-----------|-6---------------------|-----8---|---|
 C|-(7)--------------9--11---|-7-------4--6--7--6--9-|-(9)-9---|---|
 G|-(7)-12--11---7---0--0--0-|-7---------------------|-----9---|---|
 D|-(5)--------------7--9----|-5-------2--4--5--4--7-|-(7)-7---|---|

[D] |-3-|
W +H +E S S S Q
 
 D|---|--------------||
 A|-9-|------9-9-9-9-||
 F|-9-|------9-9-9-9-||
 C|-9-|------9-9-9-9-||
 G|-7-|------7-7-7-7-||
 D|-0-|------0-0-0-0-||

Legend:
H = hammer
p = pulloff
/ or \ = slide
(n) = note is held
||o and o|| indicate the start and end of a repeated section.
(n) indicates a note to be played on the SECOND REPEAT ONLY.
W = Whole note
H = Half note
Q = Quarter note
E = Eighth note
S = Sixteenth note
+ denotes a tie
LYRICS:
Baby when you hold me
I can feel so wrong
You're trying to console me
Your chance has long gone
So baby won't you take my hand?
So we can do what the others can
We are alive tonight, we are alive tonight
I am going home forever and ever more
No I was never born and there's no such thing as home
We used to stand so strong
That's why the others have gone
Different person, different argument
In my shadow, no more compliments
One more person breaking the rules again
I'm still waiting for someone else to join in
Stand where the others stand
We ride tonight
Land where the others land
We ride tonight
I am going home forever and ever more
No I was never born and there's no such thing as home
We used to stand so strong
That's why the others have gone
Scintillating and inspirational conversation
Death to everyone
Little purpose, little consequence
Too combative, too cool to realise
Different person, different argument
In my shadow, no more compliments
One more person breaking the rules again
I'm still waiting for someone else to join in
Stand where the others stand
We ride tonight
I am going home forever and ever more
No I was never born and there's no such thing as home
We used to stand so strong
That's why the others have gone

Important: The song above is NOT stored on the Chordie server. The original song is hosted at www.guitartabs.cc. Chordie works as a search engine and provides on-the-fly formatting. Chordie does not index songs against artists'/composers' will. To remove this song please click here.

Text color:
Chord color:
Chord grids: 
Font size:    
Page size: 

A A/E A/F# Aadd11 Bm C Cadd9 D D/F# G G5 Gadd9
Rate #1 of 6 versions

Login - add to songbook

SHARE PAGE  



You need to log in to post comments