Guitar Tabs, Chords and Lyrics
Server problems seems to be fixed. Chordie has been experiencing problems with songs disappearing. These issues now seems to be fixed, but still verifying the fix. If you find anything strange, please email admin@chordie.com.


Kill the Old, Torture Their Young   Biffy Clyro

 
 e|--12*------12*------|
 b|------12*------12*--|
 g|--------------------|
 d|--------------------|
 a|--------------------|
 d|--------------------|
 |-----------------------------|
 |-----------------------------|
 |----------9---------9-----9--|
 |--7-7-7-7-7-7-7-7-7-7-7-7-7--|
 |--7-7-7-7-7-7-7-7-7-7-7-7-7--|
 |--7-7-7-7-7-7-7-7-7-7-7-7-7--| x2
 |-----------------------------|
 |----------9---------9-----9--|
 |----------9---------9-----9--|
 |--0-0-0-0-0-0-0-0-0-0-0-0-0--|
 |--0-0-0-0-0-0-0-0-0-0-0-0-0--|
 |--0-0-0-0-0-0-0-0-0-0-0-0-0--| x2
 |-----------------------------|
 |-----------------------------|
 |----------9---------9-----9--|
 |--7-7-7-7-7-7-7-7-7-7-7-7-7--|
 |--7-7-7-7-7-7-7-7-7-7-7-7-7--|
 |--7-7-7-7-7-7-7-7-7-7-7-7-7--| x2
 |-----------------------------|
 |----------9---------9-----9--|
 |----------9---------9-----9--|
 |--0-0-0-0-0-0-0-0-0-0-0-0-0--|
 |--0-0-0-0-0-0-0-0-0-0-0-0-0--|
 |--0-0-0-0-0-0-0-0-0-0-0-0-0--|
 |-----------------------------|
 |----------9---------999999---|
 |----------9---------999999---|
 |--0-0-0-0-0-0-0-0-0-000000---|
 |--0-0-0-0-0-0-0-0-0-000000---|
 |--0-0-0-0-0-0-0-0-0-000000---|

 


 


 Verse


 

 
 |-----------------------------|
 |-----------------------------|
 |----------9---------9-----9--|
 |--7-7-7-7-7-7-7-7-7-7-7-7-7--|
 |--7-7-7-7-7-7-7-7-7-7-7-7-7--|
 |--7-7-7-7-7-7-7-7-7-7-7-7-7--| x2
 |-----------------------------|
 |-----------------------------|
 |----------9---------9-----9--|
 |--7-7-7-7-7-7-7-7-7-7-7-7-7--|
 |--7-7-7-7-7-7-7-7-7-7-7-7-7--|
 |--8-8-8-8-8-8-8-8-8-8-8-8-8--| x2
 |-----------------------------|
 |-----------------------------|
 |----------9---------9-----9--|
 |--7-7-7-7-7-7-7-7-7-7-7-7-7--|
 |--7-7-7-7-7-7-7-7-7-7-7-7-7--|
 |--7-7-7-7-7-7-7-7-7-7-7-7-7--| x2
 |-----------------------------|
 |----------9---------9-----9--|
 |----------9---------9-----9--|
 |--0-0-0-0-0-0-0-0-0-0-0-0-0--|
 |--0-0-0-0-0-0-0-0-0-0-0-0-0--|
 |--0-0-0-0-0-0-0-0-0-0-0-0-0--| x2
 |----------3---------3-----3--|
 |----------5---------5-----5--|
 |----------5---------5-----5--|
 |--3-3-3-3-3-3-3-3-3-3-3-3-3--|
 |--3-3-3-3-3-3-3-3-3-3-3-3-3--|
 |--3-3-3-3-3-3-3-3-3-3-3-3-3--| x7
 |----------3---------3--------|
 |----------5---------5--------|
 |----------5---------5--------|
 |--3-3-3-3-3-3-3-3-3-3-3/7-0~-|
 |--3-3-3-3-3-3-3-3-3-3-3/7-0~-|
 |--3-3-3-3-3-3-3-3-3-3-3/7-0~-|

 


 


 Break


 

 
 |----------------------------------|
 |----------------------------------|
 |------2-2-22-2-2-----4-4-4-4b5r4--|
 |------0-0-00-0-0-2-2-2-2-2-2------|
 |--0-0-0-0-00-0-0-0-0-0-0-0-0------|
 |--0-0-----------------------------|
 |----------------------------------|
 |----------------------------------|
 |--4-4-44-44-4--5-5-5-55-55-5-5----|
 |--5-5-55-55-5--3-3-3-33-33-3-3----|
 |--3-3-33-33-3--3-3-3-33-33-3-3----|
 |---------------3-3-3-33-33-3-3----|
 |-----3-----3---------3-----3------|
 |-------4-----4---------4-------4--|
 |---------5-----5---------5---5----|
 |----------------------------------|
 |------------------0~--------------|
 |--0~------------------------------|
 |-----3--3----------|
 |-----4--4----------|
 |-----5--5----------|[-------------]
 |-------------------|[-------------]
 |--3~---------------|[-------------]
 |-----------3~------|[--3-/-7--0~--]

 


 


 Verse


 

 
 [----------------------------------]
 [----------------------------------]
 [----------------------------------]
 [--0~------7~------10~------3~-----] x2
 |----------------------------------|
 |----------------------------------|
 |------2-2-22-2-2-----4-4-4-4b5r4--|
 |------0-0-00-0-0-2-2-2-2-2-2------|
 |--0-0-0-0-00-0-0-0-0-0-0-0-0------|
 |--0-0-----------------------------|
 |----------------------------------|
 |----------------------------------|
 |--4-4-44-44-4--5-5-5-55-55-5-5----|
 |--5-5-55-55-5--3-3-3-33-33-3-3----|
 |--3-3-33-33-3--3-3-3-33-33-3-3----|
 |---------------3-3-3-33-33-3-3----|
 |-----3-----3---------3-----3------|
 |-------4-----4---------4-------4--|
 |---------5-----5---------5---5----|
 |----------------------------------|
 |------------------0~--------------|
 |--0~------------------------------|
 |-----3--3-------3-3-3-33-3-3-3----|
 |-----4--4-------4-4-4-44-4-4-4----|
 |-----5--5-------5-5-5-55-5-5-5----|
 |----------------3-3-3-33-3-3-3----|
 |--3~------------3-3-3-33-3-3-3----|
 |----------------3-3-3-33-3-3-3----|

 


 


 Chorus


 

 
 |-------------------------------------------------------------------|
 |-------------------------------------------------------------------|
 |------4-----5-----------------------5-xx-9-xx-7-4-4-4-4/5\4-4/5\4--|
 |----3-----5----0-2-3-3-33-33--3-2-0-5-xx-x-xx-x-x-x-x-x-x-x-x-x-x--|
 |--2-----3------0-2-3-3-33-33--3-2-0-3-xx-7-xx-5-2-2-2-2/3\2-2/3\2--|
 |---------------0-2-3-3-33-33--3-2-0--------------------------------| x2

 


 


 Verse


 

 
 (--10---7-8-7------7-8--------8-10-12------8-10-12-10----)
 (-------------10-------8---------------------------------)
 (------------------------10-----------7------------------)
 (--------------------------------------------------------)
 [-------------------------------------8~-----------------]
 [--0~---------7~---------10~-----------------------------]
 (-------7-8-7------7-8--------8-10-12-10------8-10-12----)
 (--10---------10-------8---------------------------------)
 (------------------------10--------------7---------------)
 (--------------------------------------------------------)
 [----------------------------------------8~--------------]
 [--0~---------7~---------10~-----------------------------]

 


 [ Tab from: bttp://www.guitartabs.cc/tabs/b/biffy_clyro/kill_tbe_old_torture_tbeir_young_tab_ver_2.btml ] 


 

 
 (--10---13-12-13-12------15-13-15------10-13-12------10-13-12----)
 (---------------------------------13-----------------------------)
 (----------------------------------------------------------------)
 (----------------------------------------------------------------)
 [-------------------0~--------------------------8~---------------]
 [--0~-----------------------------10~----------------------------]
 (--10---13-12-13-12------15-13-15------10-13-12------12-15-17----)
 (---------------------------------13-----------------------------)
 (----------------------------------------------------------------)
 (----------------------------------------------------------------)
 [-------------------0~--------------------------8~---------------]
 [--0~-----------------------------10~----------------------------]

 


 


 Chorus


 

 
 |--------------------------------------------------------------------------|
 |--------------------------------------------------------------------------|
 |-4-4-44--5-5-5--------4-4-4h5p4-4h5p4-------5-xx-9-xx-7-4-4-4-4/5\4-4/5-7-|
 |-3-3-33--5-5-5--0-2-3-3-3-3-----3-----3-2-0-5-xx-x-xx-x-x-x-x-x-x-x-x-x-x-|
 |-2-2-22--3-3-3--0-2-3-3-3-3-----3-----3-2-0-3-xx-7-xx-5-2-2-2-2/3\2-2/3-5-|
 |----------------0-2-3-3-3-3-----3-----3-2-0-------------------------------|
 |--------------------------------------------------------------------------|
 |--------------------------------------------------------------------------|
 |-9-9-99-12-12-12---------4-4-------4--------5-xx-9-xx-7-4-4-4-4/5\4-4/5-7~|
 |-x-x-xx-x--x--x----0-2-3-3-3-x-x-x-3--3-2-0-5-xx-x-xx-x-x-x-x-x-x-x-x-x-x-|
 |-7-7-77-10-10-10---0-2-3-3-3-x-x-x-3--3-2-0-3-xx-7-xx-5-2-2-2-2/3\2-2/3-5~|
 |-------------------0-2-3-3-3-x-x-x-3--3-2-0-----------------------------0~|
 |--------3---------3----------3----------3----|
 |------4---4-----4---4------4---4------4-4----|
 |----5---------5----------5----------5--------|
 [----------------------------------3~---------]
 [------------0~---------3~--------------------]
 [--0~-----------------------------------------]

 


 


 Bridge x5


 

 
 |-------------------------------------------------|
 |-------------------------------------------------|
 |--2-2-22-2-11-11-2-2-2--2-22-2-22-2-11-11-2-2-2--|
 |--0-0-00-0-00-00-0-0-0--2-22-2-22-2-22-22-2-2-2--|
 |--0-0-00-0-00-00-0-0-0--0-00-0-00-0-00-00-0-0-0--|
 |--0-0-00-0-00-00-0-0-0---------------------------|
 |-------------------------------------------------|
 |--5-55-5-5-5-5-55-5-55-5-55-5-5-5-5-55-5-55------|
 |--5-55-5-5-5-5-55-5-55-5-55-5-5-5-5-55-5-55------|
 |--3-33-3-3-3-3-33-3-33-3-33-3-3-3-3-33-3-33------|
 |--3-33-3-3-3-3-33-3-33-3-33-3-3-3-3-33-3-33------|
 |--3-33-3-3-3-3-33-3-33-3-33-3-3-3-3-33-3-33------|

 


 


 Then


 

 
 |-------------------------------------------------|
 |-------------------------------------------------|
 |--2-2-22-2-11-11-2-2-2--2-22-2-22-2-11-11-2-2-2--|
 |--0-0-00-0-00-00-0-0-0--2-22-2-22-2-22-22-2-2-2--|
 |--0-0-00-0-00-00-0-0-0--0-00-0-00-0-00-00-0-0-0--|
 |--0-0-00-0-00-00-0-0-0---------------------------|
 |----------------------|
 |--5-5-5-5----5-5-5-5--|
 |--5-5-5-5----5-5-5-5--|
 |--3-3-3-3----3-3-3-3--|
 |--3-3-3-3----3-3-3-3--|
 |--3-3-3-3----3-3-3-3--|
 |--------------------------------------------------------------------------|
 |--------------------------------------------------------------------------|
 |--2-2-22-2-11-11-2-2-2--2-22-2-22-2-11-11-2-2-2--2-22-2-22-2-11-11-2-2-2--|
 |--0-0-00-0-00-00-0-0-0--x-xx-x-xx-x-xx-xx-x-x-x--x-xx-x-xx-x-xx-xx-x-x-x--|
 |--0-0-00-0-00-00-0-0-0--2-22-2-22-2-22-22-2-2-2--4-44-4-44-4-44-44-4-4-4--|
 |--0-0-00-0-00-00-0-0-0--0-00-0-00-0-00-00-0-0-0--0-00-0-00-0-00-00-0-0-0--|
 |----------------------|
 |----------------------|
 |----------------------|
 |--12/6-12/6-12~-15~---|
 |--x--x-x--x-x---x-----|
 |--12/6-12/6-12~-15~---|

 


 


 Break


 

 
 [------------------------------------------------------------]
 [------------------------------------------------------------]
 [------------------------------------------------------------]
 [--/33-3-3-33-3-3-33-3-3-33-3-3--3-3-3-33-3-3-33-3-3-33-3-3--]
 [------------------------------------------------------------]
 [------------------------------------------------------------]
 [------------------------------------------------------------]
 [--3-3-3-33-3-3-33-3-3-33-3-3--3-3-3-33-3-3-33-3-3-33-3-3----]

 


 


 Then


 

 
 |-------------------| |---------------------|
 |--------5-------5--| |--------5-------5----|
 |--------5-------5--|[----------------]|--------5-------5----|
 |--3-3-3-3-3-3-3-3--|[----------------]|--3-3-3-3-3-3-3-3----|
 |--3-3-3-3-3-3-3-3--|[----------------]|--3-3-3-3-3-3-3-3----|
 |--3-3-3-3-3-3-3-3--|[--3-3-3-33-3-3--]|--3-3-3-3-3-3-3-3----| x2
 |---------------------------------| |-------------------|
 |---------------------------------| |--------5-------5--|
 |-----------------17----------17--|[----------------]|--------5-------5--|
 |--------14-14-14-14-14-14-14-14--|[----------------]|--3-3-3-3-3-3-3-3--|
 |--3/15--15-15-15-15-15-15-15-15--|[----------------]|--3-3-3-3-3-3-3-3--|
 |--------15-15-15-15-15-15-15-15--|[--3-3-3-33-3-3--]|--3-3-3-3-3-3-3-3--|
 |------------------------------------------------------|
 |-------------------------------------------5-------5--|
 [----------------]|-----------17----------17b18~--------------5-------5--|
 [----------------]|--14-14-14-14-14-14-14-14~-----------3-3-3-3-3-3-3-3--|
 [----------------]|--15-15-15-15-15-15-15-15~-----------3-3-3-3-3-3-3-3--|
 [--3-3-3-33-3-3--]|--15-15-15-15-15-15-15-15~-----------3-3-3-3-3-3-3-3--|

 


 


 Outro x2


 

 
 |-----------------------------------|
 |-----------------------------------|
 |-----------------------------------|
 |--10--3-3-3-3-3-3-3-3-3-3-3-3-3-3--|
 |--10--3-3-3-3-3-3-3-3-3-3-3-3-3-3--|
 |--10--3-3-3-3-3-3-3-3-3-3-3-3-3-3--| x2
 |-----------------------------------|
 |-----------------------------------|
 |-----------------------------------|
 |--7--0-0-0-0-0-0-0-0-0-0-0-0-0-0---|
 |--7--0-0-0-0-0-0-0-0-0-0-0-0-0-0---|
 |--7--0-0-0-0-0-0-0-0-0-0-0-0-0-0---| x2

 


 


 Finally...


 

 
 |------5-----5-------|
 |----5-----5------5--|
 |-----------------x--|
 |--3-----3------3----|
 |--------------------|
 |--------------------|
 |------------------------------------|
 |--------5--------5b6-5b6-5b6-5b6-5--|
 |--------5--------x---x---x---x---x--|
 |--3-3-3-3-3-3-3--3---3---3---3---3--|
 |--3-3-3-3-3-3-3---------------------|
 |--3-3-3-3-3-3-3---------------------|


Important: The song above is NOT stored on the Chordie server. The original song is hosted at www.guitartabs.cc. Chordie works as a search engine and provides on-the-fly formatting. Chordie does not index songs against artists'/composers' will. To remove this song please click here.

This song is displayed as text-only. Transposing and tuning is only available for chordpro-songs.
Rate #1 of 2 versions

Login - add to songbook

SHARE PAGE  



You need to log in to post comments