Guitar Tabs, Chords and Lyrics
Server problems seems to be fixed. Chordie has been experiencing problems with songs disappearing. These issues now seems to be fixed, but still verifying the fix. If you find anything strange, please email admin@chordie.com.


Now I'm Everyone  Biffy Clyro

This is a really simple song to play, just watch out for the 5/4 time in the second half
the song. My advice is add a touch of overdrive when the electric guitars are
it helps to fill out the mix.
(Taken from my PowerTab of the full song - check it out, it's a great learning tool).
The song's in drop-D
[DADG]  
'Mon the Biffy!!
 



 

NOW I'M EVERYONE (Bassline)
As recorded by Biffy Clyro
(From the 2007 Album PUZZLE)
Words by Simon Neil
Music by Biffy Clyro
Arranged by Felkara
Transcribed by Felkara
Gtr I (D A D G) - 'Bass 1 - Clean tone'
Gtr II (D A D G) - 'Bass 2 - just add overdrive'
Intro
Q=148
[4/4] Gtrs I, II
Wx3 H. E E
 
 |------------|-------------|
 |------------|-------------|
 |------------|---------5-5-|
 |------------|-------------|

H. E E H. E E H. E E H. E E
 
 |-------------|-------------|-------------|-------------|
 |-------------|-------------|-------------|-------------|
 |---------5-5-|---------8-8-|---------8-8-|---------5-5-|
 |-------------|-------------|-------------|-------------|

H. E E H. E E H Q E E H. E E
 
 |-------------|-------------|-------------|-------------|
 |-------------|-------------|-------------|-------------|
 |---------5-5-|---------3-3-|------3S=5-5-|---------5-5-|
 |-------------|-------------|-------------|-------------|

Verse 1
H. E E H. E E H. E E H. E E
 
 |-------------|-------------|-------------|-------------|
 |-------------|-------------|-------------|-------------|
 |---------5-5-|---------8-8-|---------8-8-|---------5-5-|
 |-------------|-------------|-------------|-------------|

H. E E H. E E H. E E H. E E
 
 |-------------|-------------|-------------|-------------|
 |-------------|-------------|-------------|-------------|
 |---------5-5-|---------8-8-|---------8-8-|---------5-5-|
 |-------------|-------------|-------------|-------------|

H. E E H. E E H. E E H. E E
 
 |-------------|-------------|-------------|-------------|
 |-------------|-------------|-------------|-------------|
 |---------5-5-|---------8-8-|---------8-8-|---------5-5-|
 |-------------|-------------|-------------|-------------|

H. E E H. E E H. E E [3/4] H.
 
 |-------------|-------------|-------------|-------|
 |-------------|-------------|-------------|-------|
 |---------5-5-|---------8-8-|---------8-8-|-------|
 |-------------|-------------|-------------|-------|

is for Chorus!!
[4/4]  
[E] [E] [E] [E] [E] [E] [E] [E] [E] [E] [E] [E] [E] [E] [E] [E]  
 
 |-------------------------|--------------------------|
 |-------------------------|--------------------------|
 |-10-10-10-10-10-10-10-10-|-/13-13-13-13-13-13-13-13-|
 |-------------------------|--------------------------|

[E] [E] [E] [E] [E] [E] [E] [E] [E] [E] [E] [E] [E] [E] [E] [E]  
 
 |-----------------|------------------|
 |-----------------|------------------|
 |-8-8-8-8-8-8-8-8-|-8-8-8-8-8-8-8-8--|
 |-----------------|------------------|

[E] [E] [E] [E] [E] [E] [E] [E] [E] [E] [E] [E] [E] [E] [E] [E]  
 
 |-------------------------|-----------------|
 |-------------------------|-----------------|
 |-10-10-10-10-10-10-10-10-|-----------------|
 |-------------------------|-8-8-8-8-8-8-8-8-|

[5/4]  
[E] [E] [E] [E] [E] [E] [E] [E] [E] [E] [E] [E] [E] [E] [E] [E] [E] [E]  
 
 |-----------------|----------------------|
 |-----------------|----------------------|
 |-8-8-8-8-8-8-8-8-|-8-8-8-8-8-8-8-8-5-5--|
 |-----------------|----------------------|

Verse 2
H. E E H. E E H. E E H. E E
 
 |-------------|-------------|-------------|-------------|
 |-------------|-------------|-------------|-------------|
 |---------5-5-|---------8-8-|---------8-8-|---------5-5-|
 |-------------|-------------|-------------|-------------|

H. E E H. E E H. E E H. E E
 
 |-------------|-------------|-------------|-------------|
 |-------------|-------------|-------------|-------------|
 |---------5-5-|---------8-8-|---------8-8-|---------5-5-|
 |-------------|-------------|-------------|-------------|

Q. q E E E Q. q E E E Q. q E E E Q. q E E E
 
 |---------------|---------------|---------------|---------------|
 |---------------|---------------|---------------|---------------|
 |------5--5-5-5-|------5--5-8-8-|------8--8-8-8-|------8--8-5-5-|
 |---------------|---------------|---------------|---------------|

H. E E H. E E H. E E [3/4] H.
 
 |-------------|-------------|-------------|-------|
 |-------------|-------------|-------------|-------|
 |---------5-5-|---------8-8-|---------8-8-|-------|
 |-------------|-------------|-------------|-------|

is for Ehorus!!
[E] [E] [E] [E] [E] [E] [E] [E] [E] [E] [E] [E] [E] [E] [E] [E]  
 
 ||--------------------------|--------------------------|
 ||o-------------------------|--------------------------|
 ||o-10-10-10-10-10-10-10-10-|-/13-13-13-13-13-13-13-13-|
 ||--------------------------|--------------------------|

[E] [E] [E] [E] [E] [E] [E] [E] [E] [E] [E] [E] [E] [E] [E] [E]  
 
 |-----------------|------------------|
 |-----------------|------------------|
 |-8-8-8-8-8-8-8-8-|-8-8-8-8-8-8-8-8--|
 |-----------------|------------------|

[E] [E] [E] [E] [E] [E] [E] [E] [E] [E] [E] [E] [E] [E] [E] [E]  
 
 |-------------------------|-----------------|
 |-------------------------|-----------------|
 |-10-10-10-10-10-10-10-10-|-----------------|
 |-------------------------|-8-8-8-8-8-8-8-8-|

[E] [E] [E] [E] [E] [E] [E] [E] [E] [E] [E] [E] [E] [E] [E] [E]  
 
 |-----------------|------------------||
 |-----------------|-----------------o||
 |-8-8-8-8-8-8-8-8-|-8-8-8-8-8-8-8-8-o||
 |-----------------|------------------||

Interlude
[5/4] E E E q E E E q E E E q E E E q
 
 |-------------------|-------------------|
 |-------------------|-------------------|
 |-7-7-7-7--7-7-7-7--|-7-7-7-7--7-7-7-7--|
 |-------------------|-------------------|

E E E q E E E q E E E q E E E q
 
 |-------------------|-------------------|
 |-------------------|-------------------|
 |-7-7-7-7--7-7-7-7--|-7-7-7-7--7-7-7-7--|
 |-------------------|-------------------|

E E E q E E E q E E E q E E E q
 
 |---------------------------|---------------------------|
 |---------------------------|---------------------------|
 |-10-10-10-10--10-10-10-10--|-10-10-10-10--10-10-10-10--|
 |---------------------------|---------------------------|

E E E q E E E q E E E q E E E q
 
 |-------------------|--------------------|
 |-------------------|--------------------|
 |-7-7-7-7--7-7-7-7--|-7-7-7-7--7-7-7-7---|
 |-------------------|--------------------|

E E E q E E E q E E E q E E E q
 
 |-------------------|-------------------|
 |-------------------|-------------------|
 |-7-7-7-7--7-7-7-7--|-7-7-7-7--7-7-7-7--|
 |-------------------|-------------------|

E E E q E E E q E E E q E E E q
 
 |---------------------------|----------------------------|
 |---------------------------|----------------------------|
 |-10-10-10-10--10-10-10-10--|-10-10-10-10--10-10-10-10---|
 |---------------------------|----------------------------|

E E E q E E E q E E E q E E E q
 
 |-------------------|-------------------|
 |-------------------|-------------------|
 |-7-7-7-7--7-7-7-7--|-7-7-7-7--7-7-7-7--|
 |-------------------|-------------------|

E E E q E E E q E E E q E E E q
 
 |-------------------|--------------------|
 |-------------------|--------------------|
 |-7-7-7-7--7-7-7-7--|-7-7-7-7--7-7-7-7---|
 |-------------------|--------------------|

E E E q E E E q E E E q E E E q
 
 |---------------------------|---------------------------|
 |---------------------------|---------------------------|
 |-10-10-10-10--10-10-10-10--|-10-10-10-10--10-10-10-10--|
 |---------------------------|---------------------------|

E E E q E E E q E E E q E E E q
 
 |-------------------|--------------------|
 |-------------------|--------------------|
 |-7-7-7-7--7-7-7-7--|-7-7-7-7--7-7-7-7---|
 |-------------------|--------------------|

E E E q E E E q E E E q E E E q
 
 |-------------------|-------------------|
 |-------------------|-------------------|
 |-7-7-7-7--7-7-7-7--|-7-7-7-7--7-7-7-7--|
 |-------------------|-------------------|

E E E q E E E q E E E q E E E q
 
 |---------------------------|----------------------------|
 |---------------------------|----------------------------|
 |-10-10-10-10--10-10-10-10--|-10-10-10-10--10-10-10-10---|
 |---------------------------|----------------------------|

Wx2
 
 |--------|
 |--------|
 |--------|
 |--------|

Gtr I
Q E Q E E E Q E E E Q E E E Q
 
 ||---------------------|-------------------|
 ||o--------------------|-------------------|
 ||o--------5-----------|-------------------|
 ||--12\--0----0-0-0-0--|-0-0-0-0--0-0-0-0--|

Q. Q E E E Q E E E Q E E E Q
 
 |------------------|--------------------||
 |------------------|-------------------o||
 |------3--3-3-3-3--|-3-3-3-3--3-3-3-3--o||
 |-5----------------|--------------------||

This is the one...
E E E Q E E E Q E E E Q E E E Q
 
 ||--------------------|-------------------|
 ||o-------------------|-------------------|
 ||o-------------------|-------------------|
 ||--2-2-2-2--2-2-2-2--|-2-2-2-2--2-2-2-2--|

E E E Q E E E Q E E E Q E E E Q
 
 |-------------------|-------------------|
 |-------------------|-------------------|
 |-3-3-3-3--3-3-3-3--|-3-3-3-3--3-3-3-3--|
 |-------------------|-------------------|

E E E Q E E E Q E E E Q E E E Q
 
 |-------------------|-------------------|
 |-------------------|-------------------|
 |-------------------|-------------------|
 |-0-0-0-0--0-0-0-0--|-0-0-0-0--0-0-0-0--|

E E E Q E E E Q E E E Q E E E Q
 
 |-------------------|---------------------||
 |-------------------|--------------------o||
 |-3-3-3-3--3-3-3-3--|-3-3-3-3--3-3-3-3---o||
 |-------------------|---------------------||

W +Q +W +Q +W +Q +W +Q
 
 |---------------|-----------------|-----------------|------------------|
 |---------------|-----------------|-----------------|------------------|
 |---------------|-----------------|-----------------|------------------|
 |-5--------(5)--|-(5)--------(5)--|-(5)--------(5)--|-(5)--------(5)---|

+W +Q +W +Q +W +Q +W +Q
 
 |-----------------|-----------------|-----------------|-------------------*|
 |-----------------|-----------------|-----------------|-------------------*|
 |-----------------|-----------------|-----------------|-------------------*|
 |-(5)--------(5)--|-(5)--------(5)--|-(5)--------(5)--|-(5)--------(5)\---*|

Duration Legend
 
 ---------------
 W - whole; H - half; Q - quarter; E - 8th; S - 16th; T - 32nd; X - 64th; a - acciaccatura

+ - note tied to previous; . - note dotted; .. - note double dotted
Uncapitalized letters represent notes that are staccato (1/2 duration)
Irregular groupings are notated above the duration line
Duration letters will always appear directly above the note/fret number it represents the
duration for. Duration letters with no fret number below them represent rests. Multi-
bar rests are notated in the form Wxn, where n is the number of bars to rest for. Low
melody durations appear below the staff
Tablature Legend
 
 ----------------

h - hammer-on
p - pull-off
b - bend
pb - pre-bend
r - bend release (if no number after the r, then release immediately)
/\ - slide into or out of (from/to "nowhere")
s - legato slide
S - shift slide
- natural harmonic
(n) - artificial harmonic
n(n) - tapped harmonic
~ - vibrato
tr - trill
T - tap
TP - trem. picking
PM - palm muting
\n/ - tremolo bar dip; n = amount to dip
\n - tremolo bar down
n/ - tremolo bar up
/n\ - tremolo bar inverted dip
= - hold bend; also acts as connecting device for hammers/pulls
- volume swell (louder/softer)
x - on rhythm slash represents muted slash
o - on rhythm slash represents single note slash
Misc Legend
 
 -----------

| - bar
|| - double bar
||o - repeat start
o|| - repeat end
*| - double bar (ending)
: - bar (freetime)
$ - Segno
& - Coda
Tempo markers - = BPM(8/16=s8/s16), where s8 = swing 8ths, s16 = swing 16ths

Important: The song above is NOT stored on the Chordie server. The original song is hosted at www.guitartabs.cc. Chordie works as a search engine and provides on-the-fly formatting. Chordie does not index songs against artists'/composers' will. To remove this song please click here.

Text color:
Chord color:
Chord grids: 
Font size:    
Page size: 

E
Rate #1 of 1 versions

Login - add to songbook

SHARE PAGE  



You need to log in to post comments