Guitar Tabs, Chords and Lyrics
Server problems seems to be fixed. Chordie has been experiencing problems with songs disappearing. These issues now seems to be fixed, but still verifying the fix. If you find anything strange, please email admin@chordie.com.


The Conversation Is�?�  Biffy Clyro

The Conversation Is...
Biffy Clyro
Tabbed by Priceless_twirp, AKA Dan Drumm.
Thanks for using! Please RATE and or COMMENT if you wish to correct me or thank me or w.e!
PLEASE NOTE: Not all these bars are standard 4/4 time, it varies between bars of 4/4,
and 5/4. They are as follows...
.The tuning is VERY ireegular (Classic Biffy!) and is from High to Low as follows: FCGDFC
.3rd Bar of every Verse Phrase is 6/4
.First 3 bars of each Pre-chorus are all 6/4
.Finally the last riff, the one on the OUTRO, goes 6/4, 5/4, 6/4, 5/4, 4/4.
INTRO on Guitar 1 (X1)
[E] [E] [E] [E] [E] [E] [E] [E] [E] [E] [E] [E]  
 
 F||--------------------------------------|
 C||--------------------------------------|
 G||--------------------------------------|
 D||--0--0--0--0--0--0--0--0--0-----0-----|
 F||--4--4--4--4--4--4--4--4--4-----4-----|
 C||--2--2--2--2--2--2--2--2--2--0--2-----|

[E] [E] [E] [E] [E] [E] [E] [E] [E] [E] [E] [E] [E] [E] [E] [E] [E] [E] [E] [E] [E] [E] [E] [E]  
 
 --0--0--0--0--0--0--0--0--0--0--0--0--|--------------------------------------|
 --0--0--0--0--0--0--0--0--0--0--0--0--|--------------------------------------|
 --3--3--3--3--3--3--3--3--3--3--3--3--|--------------------------------------|
 --3--3--3--3--3--3--3--3--3--3--3--3--|--0--0--0--0--0--0--0--0--0-----0-----|
 --5--5--5--5--5--5--5--5--5--5--5--5--|--4--4--4--4--4--4--4--4--4-----4-----|
 --------------------------------------|--2--2--2--2--2--2--2--2--2--0--2-----|

VERSE on Guitar 1 (X4) "I wonder streets at night..."
E E E E E E E E E E E E Q E E E E E E
 
 --0--0--0--0--0--0--0--0--0--0--0--0--| ----------0--------------|
 --0--0--0--0--0--0--0--0--0--0--0--0--| ----------------0-----0--|
 --3--3--3--3--3--3--3--3--3--3--3--3--| -------------------------|
 --3--3--3--3--3--3--3--3--3--3--3--3--| --0----0-----0-----0-----|
 --5--5--5--5--5--5--5--5--5--5--5--5--| -------------------------|
 --------------------------------------| -------------------------|

E E E E E E E E Q E E E E E E E E E E
 
 --------0-----------0-----|----------7-----------------------0--|
 -----------0-----------0--|----------------0-----0-----0-----0--|
 --------------------------|-------------------------------------|
 --2--2--------3--3--------|-------------------------------2-----|
 --------------------------|--5----5-----5-----5-----------2-----|
 --------------------------|-------------------------0-----------|

PRE-CHORUS on Guitar 1 (X1) "The
is..."
Q E E E E E E E E E E W. W.
 
 ----------7-----------------------0--| --0----------------|-------------------|
 ----------------0-----0-----0-----0--| --0----------------|--0----------------|
 -------------------------------------| --2----------------|--2----------------|
 -------------------------------2-----| --0----------------|--3----------------|
 --5----5-----5-----5-----------2-----| -------------------|--5----------------|
 -------------------------0-----------| -------------------|-------------------|

H. E E H E E E E E E E E
 
 ------------------------------|--------------------------|
 --2------------L--4--L--------|--------------------------|
 --2------------L--5--L--------|--5--5--5--5--5--5--5--5--|
 --3------------L--5--L--------|--5--5--5--5--5--5--5--5--|
 --2------------L--4--L--------|--7--7--7--7--7--7--7--7--|
 ------------------------------|--------------------------|

CHORUS on Guitar 1 (X1) "What would I do if I'm wrong..."
[E] [E] [E] [E] [E] [E] [E] [E] [E] [E] [E] [E] [E] [E] [E] [E]  
 
 --------------------------| --0--0--0--0--0--0--0--0--|
 --------------------------| --0--0--0--0--0--0--0--0--|
 --5--5--5--5--5--5--5--5--| --5--5--5--5--5--5--5--5--|
 --5--5--5--5--5--5--5--5--| --3--3--3--3--3--3--3--3--|
 --7--7--7--7--7--7--7--7--| --0--0--0--0--0--0--0--0--|
 --------------------------| --------------------------|

[E] [E] [E] [E] [E] [E] [E] [E] [E] [E] [E] [E] [E] [E] [E] [E]  
 
 --0--0--0--0--0--0--0--0--|--0--0--0--0--0--0--0--0--|
 --0--0--0--0--0--0--0--0--|--0--0--0--0--0--0--0--0--|
 --5--5--5--5--5--5--5--5--|--x--x--x--x--x--x--x--x--|
 --3--3--3--3--3--3--3--3--|--7--7--7--7--7--7--7--7--|
 --5--5--5--5--5--5--5--5--|--9--9--9--9--9--9--9--9--|
 --------------------------|--------------------------|

[E] [E] [E] [E] [E] [E] [E] [E] [E] [E] [E] [E] [E] [E] [E] [E]  
 
 ---0---0---0---0---0---0---0---0--|--0--0--0--0--0--0--0--0--|
 ---0---0---0---0---0---0---0---0--|--0--0--0--0--0--0--0--0--|
 ---x---x---x---x---x---x---x---x--|--5--5--5--5--5--5--5--5--|
 ---8---8---8---8---8---8---8---8--|--3--3--3--3--3--3--3--3--|
 --10--10--10--10--10--10--10--10--|--5--5--5--5--5--5--5--5--|
 ----------------------------------|--------------------------|

[E] [E] [E] [E] [E] [E] [E] [E] [E] [E] [E] [E] [E] [E] [E] [E]  
 
 --0--0--0--0--0--0--0--0--|---------------------------------|
 --0--0--0--0--0--0--0--0--|---------------------------------|
 --2--2--2--2--2--2--2--2--|---------------------------------|
 --3--3--3--3--3--3--3--3--|--12--12--12--12--12--12--12--0--|
 --------------------------|--10--10--10--10--10--10--10--0--|
 --------------------------|---------------------------------|

[E] [E] [E] [E] [E] [E] [E] [E]  
 
 ----------------------------------|
 ----------------------------------|
 ----------------------------------|
 ----------------------------------|
 --12--12--12--12--12--12--12--12--|
 --10--10--10--10--10--10--10--10--|

VERSE "Are pills the only way..."
PRE-CHORUS "The conversation is..."
CHORUS on Guitar 1
[E] [E] [E] [E] [E] [E] [E] [E]  
 
 |--0--0--0--0--0--0--0--0--|
 |--0--0--0--0--0--0--0--0--|
 |--5--5--5--5--5--5--5--5--|
 |--3--3--3--3--3--3--3--3--|
 |--0--0--0--0--0--0--0--0--|
 |--------------------------|

[E] [E] [E] [E] [E] [E] [E] [E] [E] [E] [E] [E] [E] [E] [E] [E]  
 
 --0--0--0--0--0--0--0--0--|--0--0--0--0--0--0--0--0--|
 --0--0--0--0--0--0--0--0--|--0--0--0--0--0--0--0--0--|
 --5--5--5--5--5--5--5--5--|--x--x--x--x--x--x--x--x--|
 --3--3--3--3--3--3--3--3--|--7--7--7--7--7--7--7--7--|
 --5--5--5--5--5--5--5--5--|--9--9--9--9--9--9--9--9--|
 --------------------------|--------------------------|

[E] [E] [E] [E] [E] [E] [E] [E] [E] [E] [E] [E] [E] [E] [E] [E]  
 
 ---0---0---0---0---0---0---0---0--|--0--0--0--0--0--0--0--0--|
 ---0---0---0---0---0---0---0---0--|--0--0--0--0--0--0--0--0--|
 ---x---x---x---x---x---x---x---x--|--5--5--5--5--5--5--5--5--|
 ---8---8---8---8---8---8---8---8--|--3--3--3--3--3--3--3--3--|
 --10--10--10--10--10--10--10--10--|--5--5--5--5--5--5--5--5--|
 ----------------------------------|--------------------------|

[E] [E] [E] [E] [E] [E] [E] [E] [E] [E] [E] [E] [E] [E] [E] [E]  
 
 --0--0--0--0--0--0--0--0--|----------------------------------|
 --0--0--0--0--0--0--0--0--|----------------------------------|
 --2--2--2--2--2--2--2--2--|----------------------------------|
 --3--3--3--3--3--3--3--3--|--12--12--12--12--12--12--12--12--|
 --------------------------|--10--10--10--10--10--10--10--10--|
 --------------------------|----------------------------------|

[E] [E] [E] [E] [E] [E] [E] [E] [E] [E] [E] [E] [E] [E] [E] [E]  
 
 ----------------------------------|--0--0--0--0--0--0--0--0--|
 ----------------------------------|--0--0--0--0--0--0--0--0--|
 ----------------------------------|--5--5--5--5--5--5--5--5--|
 --12--12--12--12--12--12--12--12--|--3--3--3--3--3--3--3--3--|
 --10--10--10--10--10--10--10--10--|--0--0--0--0--0--0--0--0--|
 ----------------------------------|--------------------------|

[E] [E] [E] [E] [E] [E] [E] [E] [E] [E] [E] [E] [E] [E] [E] [E]  
 
 --0--0--0--0--0--0--0--0--|--0--0--0--0--0--0--0--0--|
 --0--0--0--0--0--0--0--0--|--0--0--0--0--0--0--0--0--|
 --5--5--5--5--5--5--5--5--|--x--x--x--x--x--x--x--x--|
 --3--3--3--3--3--3--3--3--|--7--7--7--7--7--7--7--7--|
 --5--5--5--5--5--5--5--5--|--9--9--9--9--9--9--9--9--|
 --------------------------|--------------------------|

[E] [E] [E] [E] [E] [E] [E] [E] [E] [E] [E] [E] [E] [E] [E] [E]  
 
 ---0---0---0---0---0---0---0---0--|--0--0--0--0--0--0--0--0--|
 ---0---0---0---0---0---0---0---0--|--0--0--0--0--0--0--0--0--|
 ---x---x---x---x---x---x---x---x--|--5--5--5--5--5--5--5--5--|
 ---8---8---8---8---8---8---8---8--|--3--3--3--3--3--3--3--3--|
 --10--10--10--10--10--10--10--10--|--5--5--5--5--5--5--5--5--|
 ----------------------------------|--------------------------|

[E] [E] [E] [E] [E] [E] [E] [E] [E] [E] [E] [E] [E] [E] [E] [E]  
 
 --0--0--0--0--0--0--0--0--|----------------------------------|
 --0--0--0--0--0--0--0--0--|----------------------------------|
 --2--2--2--2--2--2--2--2--|----------------------------------|
 --3--3--3--3--3--3--3--3--|--12--12--12--12--12--12--12--12--|
 --------------------------|--10--10--10--10--10--10--10--10--|
 --------------------------|----------------------------------|

BRIDGE 1 on Guitar 1 "But then you try to understand..."
[E] [E] [E] [E] [E] [E] [E] [E] [E] [E] [E] [E] [E] [E] [E] [E]  
 
 ----------------------------------| --------------------------------|
 ----------------------------------| --------------------------------|
 ----------------------------------| --------------------------------|
 --12--12--12--12--12--12--12--12--| --------------------------------|
 --10--10--10--10--10--10--10--10--| ---9---9---9---9---9---9-----4--|
 ----------------------------------| --10--10--10--10--10--10--0--2--|

[E] [E] [E] [E] [E] [E] [E] [E] [E] [E] [E] [E] [E] [E] [E] [E]  
 
 --------------------------|--------------------------|
 --------------------------|--------------------------|
 --------------------------|--------------------------|
 --------------------------|--------------------------|
 --L--4--4--4--4--4--4--4--|--2--2--2--2--2--2--2--5--|
 --L--2--2--2--2--2--2--2--|--0--0--0--0--0--0--0--7--|

[E] [E] [E] [E] [E] [E] [E] [E] [E] [E] [E] [E] [E] [E] [E] [E]  
 
 --------------------------|--------------------------------|
 --------------------------|--------------------------------|
 --------------------------|--------------------------------|
 --------------------------|--------------------------------|
 --L--5--5--5--5--5--5--5--|---9---9---9---9---9---9-----4--|
 --L--7--7--7--7--7--7--7--|--10--10--10--10--10--10--0--2--|

[E] [E] [E] [E] [E] [E] [E] [E] [E] [E] [E] [E] [E] [E] [E] [E]  
 
 --------------------------|--------------------------|
 --------------------------|--------------------------|
 --------------------------|--------------------------|
 --------------------------|--------------------------|
 --L--4--4--4--4--4--4--4--|--2--2--2--2--2--2--2--2--|
 --L--2--2--2--2--2--2--2--|--0--0--0--0--0--0--0--0--|

BRIDGE 2 (THE ONE SIMLAR TO INTRO) (x2) on Guitar 1
[E] [E] [E] [E] [E] [E] [E] [E] [E] [E] [E] [E] [E] [E] [E] [E] [E] [E] [E] [E]  
 
 --------------------------| --------------------------------------|
 --------------------------| --------------------------------------|
 --------------------------| --------------------------------------|
 --------------------------| --0--0--0--0--0--0--0--0--0-----0-----|
 --2--2--2--2--2--2--2--2--| --4--4--4--4--4--4--4--4--4-----4-----|
 --0--0--0--0--0--0--0--0--| --2--2--2--2--2--2--2--2--2--0--2-----|

[E] [E] [E] [E] [E] [E] [E] [E] [E] [E] [E] [E] [E] [E] [E] [E] [E] [E] [E] [E] [E] [E] [E] [E]  
 
 --0--0--0--0--0--0--0--0--0--0--0--0--|--------------------------------------|
 --0--0--0--0--0--0--0--0--0--0--0--0--|--------------------------------------|
 --3--3--3--3--3--3--3--3--3--3--3--3--|--0--0--0--0--0--0--0--0--0--0--0-----|
 --3--3--3--3--3--3--3--3--3--3--3--3--|--3--3--3--3--3--3--3--3--3--5--5-----|
 --5--5--5--5--5--5--5--5--5--5--5--5--|--2--2--2--2--2--2--2--2--2--4--4-----|
 --------------------------------------|--------------------------------------|

[E] [E] [E] [E] [E] [E] [E] [E] [E] [E] [E] [E]  
 
 --------------------------------------|
 --0--0--0--0--0--0--0--0--0--0--0--0--|
 --5--5--5--5--5--5--5--5--5--5--5--5--|
 --5--5--5--5--5--5--5--5--5--5--5--5--|
 --7--7--7--7--7--7--7--7--7--7--7--7--|
 --------------------------------------|

CHORUS on Guitar 1 (solo x1 then w/band x1)
BRIDGE 1 (X2) on Guitar 1 (first time is the "Try to understand..." one, the
is the "The conversation is, o-u-o-u-over...")
OUTRO on Guitars 1 & 2
E E E E E E E E E E Q
 
 |----------------------------------------|
 |----------------------------------------|
 |----------------------------------------|
 |--0--0--10--0-----10-----0-----10--0----|
 |----------------------------------------|
 |----------------------------------------|

E E E E E E E E E E E E E E E E E E E E Q
 
 ----------------------------------|-------------------------------------|
 ----------------------------------|-------------------------------------|
 --------12--------12--------------|-------------------------------------|
 --0--0--10--0-----10--------------|-------------------------------------|
 -------------------------7-----8--|--------7--------7-----------7-------|
 ----------------------------------|--2--2-----2-----------2--------2----|

E E E E E E E E E E W W
 
 --------------------------------|-------------------|-------------------|
 --------------------------------|-------------------|-------------------|
 --------------------------------|-------------------|-------------------|
 --------------------------------|-------------------|-------------------|
 --------7--------7--------------|-------------------|-------------------|
 --2--2-----2-----------0-----1--|--2----------------|--L----------------|

W W
 
 -------------------|-------------------||
 -------------------|-------------------||
 -------------------|-------------------||
 -------------------|-------------------||
 -------------------|-------------------||
 --L----------------|--L----------------||

INTRO on Guitar 2 (X1)
E E E E E E E E Q E E Q. Q. Q Q Q
 
 F||--9--------9-----------9--11----9--L\--|--2-------------2----4----L\----|
 C||-----9--------9-----9------------------|--2------5----------------------|
 G||--------7--------7---------------------|--2-----------------------------|
 D||---------------------------------------|--------------------------------|
 F||---------------------------------------|--------------------------------|
 C||---------------------------------------|--------------------------------|

E E E E E E E E Q E E Q. Q. Q Q Q
 
 --9--------9-----------9--11----9--L\--|--2-------------2----4---------|
 -----9--------9-----9------------------|--2------5----------------0----|
 --------7--------7---------------------|--2----------------------------|
 ---------------------------------------|-------------------------------|
 ---------------------------------------|-------------------------------|
 ---------------------------------------|-------------------------------|

W W W. W
 
 --0----------------|--L----------------|--L----------------|--L----------------|
 -------------------|-------------------|-------------------|-------------------|
 -------------------|-------------------|-------------------|-------------------|
 -------------------|-------------------|-------------------|-------------------|
 -------------------|-------------------|-------------------|-------------------|
 -------------------|-------------------|-------------------|-------------------|

VERSE on Guitar 2 (X4) "I
streets at night..."
W Q. Q Q Q E E E E E E E E Q E
 
 --L----------------|---------7--------------------0--| --L--0-----0--L----------|
 -------------------|---------------------------4-----| --------4----------------|
 -------------------|--5-----------5----5----5--------| -----------------5----5--|
 -------------------|---------------------------------| -------------------------|
 -------------------|---------------------------------| -------------------------|
 -------------------|---------------------------------| -------------------------|

E E E E E E E E E Q Q Q Q E E E
 
 --------0-----------0-----|----------7--------------------0--|
 --------------------------|----------------------------4-----|
 --L--5-----5--L--5-----5--|--L--5---------5----5----5--------|
 --------------------------|----------------------------------|
 --------------------------|----------------------------------|
 --------------------------|----------------------------------|

[E] [E] [E] [E] [E] [E] [E] [E] [E] [E] [E] [E]  
 
 |---------------------------------------|
 |---------------------------------------|
 |---------------------------------------|
 |---------------------------------------|
 |--9--9--7--9-----7-----9-----7--9--L\--|
 |---------------------------------------|

[E] [E] [E] [E] [E] [E] [E] [E] [E] [E] [E] [E] [E] [E] [E] [E] [E] [E] [E] [E] [E] [E] [E] [E]  
 
 ---------------------------------------|--------------------------------------|
 ---------------------------------------|--------------------------------------|
 ---------------------------------------|--------------------------------------|
 ---------------------------------------|--------------------------------------|
 --5--5--4--5-----4-----5-----4--5--L\--|--2--2--0--2-----0-----4-----2--4--5--|
 ---------------------------------------|--------------------------------------|

[E] [E] [E] [E] [E] [E] [E] [E] [E] [E] [E] [E] [E] [E] [E] [E]  
 
 --------------------------|--------------------------|
 --------------------------|--------------------------|
 --------------------------|--------------------------|
 --5--5--5--5--5--5--5--5--|--5--5--5--5--5--5--5--5--|
 --7--7--7--7--7--7--7--7--|--7--7--7--7--7--7--7--7--|
 --------------------------|--------------------------|

CHORUS on Guitar 2 (X1) (EXACTLY AS GUITAR 1) "What would I do
I'm wrong..."
VERSE "Are pills the only way..."
PRE-CHORUS "The conversation is..."
CHORUS on Guitar 2 (X1) (EXACTLY AS GUITAR 1) "What would I do
I'm wrong..."
BRIDGE 1 on Guitar 2 "But then you try to understand..."
[E] [E] [E] [E] [E] [E] [E] [E]  
 
 |---9---9---9---9---9---9--0--9--|
 |--10--10--10--10--10--10--0--9--|
 |--------------------------------|
 |--------------------------------|
 |--------------------------------|
 |--------------------------------|

[E] [E] [E] [E] [E] [E] [E] [E] [E] [E] [E] [E] [E] [E] [E] [E]  
 
 --L--9--9--9--9--9--9--9--|--7--7--7--7--7--7--0--5--|
 --L--9--9--9--9--9--9--9--|--7--7--7--7--7--7--0--7--|
 --------------------------|--------------------------|
 --------------------------|--------------------------|
 --------------------------|--------------------------|
 --------------------------|--------------------------|

[E] [E] [E] [E] [E] [E] [E] [E] [E] [E] [E] [E] [E] [E] [E] [E]  
 
 --L--5--5--5--5--5--5--5--|---9---9---9---9---9---9--0--9--|
 --L--7--7--7--7--7--7--7--|--10--10--10--10--10--10--0--9--|
 --------------------------|--------------------------------|
 --------------------------|--------------------------------|
 --------------------------|--------------------------------|
 --------------------------|--------------------------------|

[E] [E] [E] [E] [E] [E] [E] [E] [E] [E] [E] [E] [E] [E] [E] [E]  
 
 --L--9--9--9--9--9--9--9--|--7--7--7--7--7--7--7--7--|
 --L--9--9--9--9--9--9--9--|--7--7--7--7--7--7--7--7--|
 --------------------------|--------------------------|
 --------------------------|--------------------------|
 --------------------------|--------------------------|
 --------------------------|--------------------------|

BRIDGE 2 (THE ONE SIMLAR TO INTRO) (x2) on Guitar 2
E E E E E E E E E E E E E E E E Q E E
 
 --7--7--7--7--7--7--7--7--| --9--------9-----------9--11----9--L\--|
 --7--7--7--7--7--7--7--7--| -----9--------9-----9------------------|
 --------------------------| --------7--------7---------------------|
 --------------------------| ---------------------------------------|
 --------------------------| ---------------------------------------|
 --------------------------| ---------------------------------------|

Q. Q. Q Q Q E E E E E E E E E E E E
 
 --2-------------2----4----L\----|--2--------2--------2-----4--2--7-----|
 --2------5----------------------|-----2--------2--------2--------------|
 --2-----------------------------|--------0--------0--------------------|
 --------------------------------|--------------------------------------|
 --------------------------------|--------------------------------------|
 --------------------------------|--------------------------------------|

[E] [E] [E] [E] [E] [E] [E] [E] [E] [E] [E] [E]  
 
 --------------------------------------|
 -----------4--------5-----7--7--------|
 --5--5--5-----5--5-----5--------5--5--|
 --------------------------------------|
 --------------------------------------|
 --------------------------------------|

8 Bar rest where Guitar one plays CHORUS once then whole band
in with CHORUS again
BRIDGE 1 (X2) on Guitar 2 (first time is the "Try to understand..." one, the
is the "The conversation is, o-u-o-u-over...")
OUTRO (exactly as guitar 2)
Duration Legend
 
 ---------------

W - whole
H - half
Q - quarter
E - 8th
S - 16th
T - 32nd
X - 64th
. - note dotted
|-n-| - n-tuplets
Tablature Legend
 
 ----------------

L - tied note
x - dead note
g - grace note
(n) - ghost note
> - accentuded note
NH - natural harmonic
AH - artificial harmonic
TH - tapped harmonic
SH - semi harmonic
PH - pitch harmonic
h - hammer on
p - pull off
b - bend
br - bendRelease
pb - preBend
pbr - preBendRelease
brb - bendReleaseBend
\n/ - tremolo bar dip
\n - tremolo bar dive
-/n - tremolo bar Release up
/n\ - tremolo bar inverted dip
/n - tremolo bar return
-\n - tremolo bar Release down
S - shift slide
s - legato slide
/ - slide into from below or out of upwards
\ - slide into from above or out of downwards
~ - vibrato
W - wide vibrato
tr - trill
TP - tremolo picking
T - tapping
S - slap
P - pop
< - fade in
^ - brush up
v - brush down

Important: The song above is NOT stored on the Chordie server. The original song is hosted at www.guitartabs.cc. Chordie works as a search engine and provides on-the-fly formatting. Chordie does not index songs against artists'/composers' will. To remove this song please click here.

Text color:
Chord color:
Chord grids: 
Font size:    
Page size: 

E
Rate #1 of 1 versions

Login - add to songbook

SHARE PAGE  




You need to log in to post comments