Guitar Tabs, Chords and Lyrics
Login is temporarily disabled for some users. Do not panic. Will be back in an hour or two. DO NOT REREGISTER!!


Wave Upon Wave Upon Wave  Biffy Clyro

Infinity Land
[D] [A] [D] [G]  
Intro
 
 ------------------------------------------------|
 ------------------------------------------------|
 ------------------------------------------------|
 --3--3--3-3--3--3--3-4-5--5--7--7--7-7--7--7--7-|
 -----------------------------------|
 -----------------------------------|
 -----------------------------------|
 --0--0--0-0--0--0--0-0--0--0--0-0--|
 ------------------------------------------------|
 ------------------------------------------------|
 -----------------------------------12/----------|
 --3--3--3-3--3--3--3-4-5--5--7--7-------7--7--7-|

Verse
 
 -----------------------------------|
 -----------------------------------|
 -----------------------------------|
 --0--0--0-0--0--0--0-0--0--0--0-0--|
 ------------------------------------------------|
 ------------------------------------------------|
 ------------------------------------------------|
 --3--3--3-3--3--3--3-4-5--5--7--7--7-7--7--7--7-|
 -------------------------------------------|
 --------2-2-2--------0-2-----2-2-2-----0-2-|
 -------------------------------------------|
 --0--0----------0--0----0--0-------0-0-----|
 ------------------------------------------------|
 ------------------------------------------------|
 ------------------------------------------------|
 --3--3--3-3--3--3--3-4-5--5--7--7--7-7--7--7--7-|

Chorus
 
 ---------------------------------------------|
 ---------------------------------------------|
 --3-3-3-3-3-3-3-3-3-3--0-0-0-0-0-0-0-0-1-1-1-|
 ---------------------------------------------| x2
 ---------------------------|
 ---------------------------|
 ---------------------------|
 --2-2--0-3-3--0-2-2--0-5-5-|

Post Chorus
 
 -------------------------------------|
 ---------2h4p2h4--------4-2----------|
 -------2--------------2-----2------2-|
 --0~-------------0-------------0-----|
 ---------------|
 -----5---4-----|
 --0---------0--|
 ---------------|

Verse 2
 
 -----------------------------------|
 -----------------------------------|
 -----------------------------------|
 --0--0--0-0--0--0--0-0--0--0--0-0--|
 ------------------------------------------------|
 ------------------------------------------------|
 -----------------------------------12/----------|
 --3--3--3-3--3--3--3-4-5--5--7--7-------7--7--7-|
 -----------------------------------|
 -----------------------------------|
 -----------------------------------|
 --0--0--0-0--0--0--0-0--0--0--0-0--|

( Tab from: http://www.guitartabs.cc/tabs/b/biffy_clyro/wave_upon_wave_upon_wave_btab.html )
 
 ------------------------------------------------|
 ------------------------------------------------|
 ------------------------------------------------|
 --3--3--3-3--3--3--3-4-5--5--7--7--7-7--7--7--7-|
 -------------------------------------------|
 --------2-2-2--------0-2-----2-2-2-----0-2-|
 -------------------------------------------|
 --0--0----------0--0----0--0-------0-0-----|
 ------------------------------------------------|
 ------------------------------------------------|
 ------------------------------------------------|
 --3--3--3-3--3--3--3-4-5--5--7--7--7-7--7--7--7-|

Chorus
 
 ---------------------------------------------|
 ---------------------------------------------|
 --3-3-3-3-3-3-3-3-3-3--0-0-0-0-0-0-0-0-1-1-1-|
 ---------------------------------------------| x2
 ---------------------------|
 ---------------------------|
 ---------------------------|
 --2-2--0-3-3--0-2-2--0-5-5-| x4

Bridge
 
 ----------------------------------|
 ------------------------7---5--5--|
 --0------0------0-----------------|
 ----------------------------------| x2
 -----------------------------------------------|
 ----7/-----------7/-5h7-------7/--------7--5-5-|
 --0---0-5h7-7--0-------5h7--0---0-5h7-7--------|
 -----------------------------------------------| x2
 ---------------|
 ---------------|
 --3----5----0--|
 ---------------| x2
 ---------------|
 ---------------|
 ---------------|
 --2-2--4-4--0--| x2
 ---------------|
 ---------------|
 ---------0-----|
 --2-2--4----0--| x2

Middle 8
 
 -------------------------------------------------------------------|
 -------------------------------------------------------------------|
 --2-2-2-2-2-2-2-2---------------------------------5-5-5-5-5-5-5-5--|
 ------------------5-5-5-5-5-5-5-5-4-4-4-4-4-4-4-4------------------| x2
 -------------------------------------------------------------------|
 -------------------------------------------------------------------|
 --2-2-2-2-2-2-2-2---------------------------------5-5-5-4-5-7-5-4--|
 ------------------5-5-5-5-5-5-5-5-4-4-4-4-4-4-4-4------------------|
 -------------------------------------------------------------------|
 ----------4-4-0-0--------------------------------------------------|
 --2-2-2-2-----------------6-6-5-5-----------------5-5-5-5-5-5-5-5--|
 ------------------5-5-5-5---------4-4-4-4-4-4-4-4------------------|
 -------------------------------------|
 ---------2h4p2h4--------4-2----------|
 -------2--------------2-----2------2-|
 --0~-------------0-------------0-----|
 ---------------|
 -----5---4-----|
 --0---------0--|
 ---------------|
 -----------------------------------|
 -----------------------------------|
 -----------------------------------|
 --0--0--0-0--0--0--0-0--0--0--0-0--| fade out.

Enjoy!

Important: The song above is NOT stored on the Chordie server. The original song is hosted at www.guitartabs.cc. Chordie works as a search engine and provides on-the-fly formatting. Chordie does not index songs against artists'/composers' will. To remove this song please click here.

Text color:
Chord color:
Chord grids: 
Font size:    
Page size: 

A D G
Rate #1 of 1 versions

Login - add to songbook

SHARE PAGE  



You need to log in to post comments