Guitar Tabs, Chords and Lyrics
Server problems seems to be fixed. Chordie has been experiencing problems with songs disappearing. These issues now seems to be fixed, but still verifying the fix. If you find anything strange, please email admin@chordie.com.


Who's Got a Match?  Biffy Clyro

Who's Got A Match?
Biffy Clyro
[Bass]  
|--3--|
Q Q Q E E E
 
 G||-----------------5--4--0--|
 D||--------------------------|
 A||--------------------------|
 D||--------------------------|

[E] [E] [E] [E] [E] [E] [E] [E]  
 
 --------------------------|
 --7-----7-----7-----7-----|
 --------------------------|
 --------------------------|

|--3--|
[E] [E] [E] [E] [E] [E] [E] [E] [E]  
 
 --------------------5--4--0--|
 --7-----7-----7--------------|
 -----------------------------|
 -----------------------------|

[E] [E] [E] [E] [E] [E] [E] [E]  
 
 --------------------------|
 --7-----7-----7-----7-----|
 --------------------------|
 --------------------------|

|--3--|
[E] [E] [E] [E] [E] [E] [E] [E] [E]  
 
 --------------------5--4--0--|
 --7-----7-----7--------------|
 -----------------------------|
 -----------------------------|

[E] [E] [E] [E] [E] [E] [E] [E]  
 
 --------------------------|
 --7-----7-----7-----7-----|
 --------------------------|
 --------------------------|

|--3--|
[E] [E] [E] [E] [E] [E] [E] [E] [E]  
 
 --------------------5--4--0--|
 --7-----7-----7--------------|
 -----------------------------|
 -----------------------------|

[E] [E] [E] [E] [E] [E] [E] [E]  
 
 --------------------------|
 --7-----7-----7-----7-----|
 --------------------------|
 --------------------------|

|--3--|
[E] [E] [E] [E] [E] [E] [E] [E] [E]  
 
 --------------------5--4-----|
 --7-----7-----7-----------0--|
 -----------------------------|
 -----------------------------|

[E] [E] [E] [E] [E] [E] [E] [E]  
 
 --------------------------|
 --5-----5-----5-----5-----|
 --------------------------|
 --------------------------|

|--3--|
[E] [E] [E] [E] [E] [E] [E] [E] [E]  
 
 --------------------5--4--0--|
 --5-----5-----5--------------|
 -----------------------------|
 -----------------------------|

[E] [E] [E] [E] [E] [E] [E] [E]  
 
 -----------------------4--|
 --7-----7-----7-----5-----|
 --------------------------|
 --------------------------|

|--3--|
[E] [E] [E] [E] [E] [E] [E] [E] [E]  
 
 --------------------5--4--0--|
 --7-----7-----7--------------|
 -----------------------------|
 -----------------------------|

[E] [E] [E] [E] [E] [E] [E] [E]  
 
 --------------------------|
 --7-----7-----7-----7-----|
 --------------------------|
 --------------------------|

|--3--|
[E] [E] [E] [E] [E] [E] [E] [E] [E]  
 
 --------------------5--4--0--|
 --7-----7-----7--------------|
 -----------------------------|
 -----------------------------|

[E] [E] [E] [E] [E] [E] [E] [E]  
 
 --------------------------|
 --7-----7-----7-----7-----|
 --------------------------|
 --------------------------|

|--3--|
[E] [E] [E] [E] [E] [E] [E] [E] [E]  
 
 --------------------5--4-----|
 --7-----7-----7-----------0--|
 -----------------------------|
 -----------------------------|

[E] [E] [E] [E] [E] [E] [E] [E]  
 
 --------------------------|
 --5-----5-----5-----5-----|
 --------------------------|
 --------------------------|

|--3--|
[E] [E] [E] [E] [E] [E] [E] [E] [E]  
 
 --------------------5--4--0--|
 --5-----5-----5--------------|
 -----------------------------|
 -----------------------------|

[E] [E] [E] [E] [E] [E] [E] [E]  
 
 -----------------------4--|
 --7-----7-----7-----5-----|
 --------------------------|
 --------------------------|
 |--3--| --- --- 

[E] [E] [E] [E] [E] [E] [E] [E] [E]  
 
 --------------------5--4--0--|-----|-----|
 --7-----7-----7--------------|-----|-----|
 -----------------------------|-----|-----|
 -----------------------------|-----|-----|
 --- --- --- --- --- ---
 -----|-----|-----|-----|-----|-----|
 -----|-----|-----|-----|-----|-----|
 -----|-----|-----|-----|-----|-----|
 -----|-----|-----|-----|-----|-----|

[E] [E] [E] [E] [E] [E] [E] [E]  
 
 --------------------------|
 --7-----7-----7-----7-----|
 --------------------------|
 --------------------------|

|--3--|
[E] [E] [E] [E] [E] [E] [E] [E] [E]  
 
 --------------------5--4--0--|
 --7-----7-----7--------------|
 -----------------------------|
 -----------------------------|

[E] [E] [E] [E] [E] [E] [E] [E]  
 
 --------------------------|
 --7-----7-----7-----7-----|
 --------------------------|
 --------------------------|

|--3--|
[E] [E] [E] [E] [E] [E] [E] [E] [E]  
 
 --------------------5--4-----|
 --7-----7-----7-----------0--|
 -----------------------------|
 -----------------------------|

[E] [E] [E] [E] [E] [E] [E] [E]  
 
 --------------------------|
 --7-----7-----7-----7-----|
 --------------------------|
 --------------------------|

|--3--|
[E] [E] [E] [E] [E] [E] [E] [E] [E]  
 
 --------------------5--4--0--|
 --7-----7-----7--------------|
 -----------------------------|
 -----------------------------|

[E] [E] [E] [E] [E] [E] [E] [E]  
 
 --------------------------|
 --7-----7-----7-----7-----|
 --------------------------|
 --------------------------|

|--3--|
[E] [E] [E] [E] [E] [E] [E] [E] [E]  
 
 --------------------5--4-----|
 --7-----7-----7-----------0--|
 -----------------------------|
 -----------------------------|

[E] [E] [E] [E] [E] [E] [E] [E]  
 
 --------------------------|
 --5-----5-----5-----5-----|
 --------------------------|
 --------------------------|

|--3--|
[E] [E] [E] [E] [E] [E] [E] [E] [E]  
 
 --------------------5--4--0--|
 --5-----5-----5--------------|
 -----------------------------|
 -----------------------------|

[E] [E] [E] [E] [E] [E] [E] [E]  
 
 -----------------------4--|
 --7-----7-----7-----5-----|
 --------------------------|
 --------------------------|

|--3--|
[E] [E] [E] [E] [E] [E] [E] [E] [E]  
 
 --------------------5--4--0--|
 --7-----7-----7--------------|
 -----------------------------|
 -----------------------------|

[E] [E] [E] [E] [E] [E] [E] [E]  
 
 --------------------------|
 --7-----7-----7-----7-----|
 --------------------------|
 --------------------------|

|--3--|
[E] [E] [E] [E] [E] [E] [E] [E] [E]  
 
 --------------------5--4--0--|
 --7-----7-----7--------------|
 -----------------------------|
 -----------------------------|

[E] [E] [E] [E] [E] [E] [E] [E]  
 
 --------------------------|
 --7-----7-----7-----7-----|
 --------------------------|
 --------------------------|

|--3--|
[E] [E] [E] [E] [E] [E] [E] [E] [E]  
 
 --------------------5--4-----|
 --7-----7-----7-----------0--|
 -----------------------------|
 -----------------------------|

[E] [E] [E] [E] [E] [E] [E] [E]  
 
 --------------------------|
 --5-----5-----5-----5-----|
 --------------------------|
 --------------------------|

|--3--|
[E] [E] [E] [E] [E] [E] [E] [E] [E]  
 
 --------------------5--4--0--|
 --5-----5-----5--------------|
 -----------------------------|
 -----------------------------|

[E] [E] [E] [E] [E] [E] [E] [E]  
 
 -----------------------4--|
 --7-----7-----7-----5-----|
 --------------------------|
 --------------------------|

|--3--|
[E] [E] [E] [E] [E] [E] [E] [E] [E]  
 
 --------------------5--4--0--|
 --7-----7-----7--------------|
 -----------------------------|
 -----------------------------|

[E] [E] [E] [E] [E] [E] [E] [E]  
 
 --------------------------|
 --7-----7-----7-----7--7--|
 --------------------------|
 --------------------------|

[E] [E] [E] [E] [E] [E] [E] [E]  
 
 --10-----10-----10-----10-----|
 ------------------------------|
 ------------------------------|
 ------------------------------|

[E] [E] [E] [E] [E] [E] [E] [E]  
 
 --7-----7-----7-----7--7--|
 --------------------------|
 --------------------------|
 --------------------------|

[E] [E] [E] [E] [E] [E] [E] [E]  
 
 --------------------------|
 --5-----5-----6-----6--6--|
 --------------------------|
 --------------------------|

[E] [E] [E] [E] [E] [E] [E] [E]  
 
 --------------------------|
 --7-----7-----7-----7--7--|
 --------------------------|
 --------------------------|

[E] [E] [E] [E] [E] [E] [E] [E]  
 
 --10-----10-----10-----10-----|
 ------------------------------|
 ------------------------------|
 ------------------------------|

[E] [E] [E] [E] [E] [E] [E] [E]  
 
 --7-----7-----7-----7--7--|
 --------------------------|
 --------------------------|
 --------------------------|

[E] [E] [E] [E] [E] [E] [E] [E]  
 
 --------------------------|
 --5-----5-----6-----6--6--|
 --------------------------|
 --------------------------|

Q Q Q Q
 
 ----------------------|
 ----------------------|
 ----------------------|
 --7-------------------|

Q Q E E Q
 
 ------------------------|
 ------------------------|
 ------------------------|
 ---------------7--10----|

Q Q Q Q
 
 ----------------------|
 ----------------------|
 ----------------------|
 --7-------------------|

Q Q E E Q
 
 -----------------------|
 -----------------------|
 -----------------------|
 ---------------0--5----|

Q Q Q Q
 
 ----------------------|
 ----------------------|
 ----------------------|
 --7-------------------|

Q Q E E Q
 
 ------------------------|
 ------------------------|
 ------------------------|
 ---------------7--10----|

Q Q Q Q
 
 ----------------------|
 ----------------------|
 ----------------------|
 --7-------------------|
 |---3---| |---3---| |---3---| |---3-

[E] [E] [E] [E] [E] [E] [E] [E] [E] [E] [E] 
 
 ---------------------------------------------
 ---------------------------------------------
 ---------------------------------------------
 --12--12--12--12--12--12--12--12--12--15--14-

|---3--|
Q Q Q E E E
 
 -----------------------------|
 -----------------------------|
 -----------------------------|
 --12----0----0----15--14--0--|

|---3--|
Q Q Q E E E
 
 -----------------------------|
 -----------------------------|
 -----------------------------|
 --12----0----0----15--14--0--|

|---3--|
Q Q Q E E E
 
 -----------------------------|
 -----------------------------|
 -----------------------------|
 --12----0----0----15--14--0--|

|---3--|
Q Q Q E E E
 
 -----------------------------|
 -----------------------------|
 -----------------------------|
 --12----0----0----15--14--0--|

Q Q Q E E
 
 --------------------------|
 --------------------------|
 --------------------------|
 --12----0----0----10--14--|

|---3--|
Q Q Q E E E
 
 -----------------------------|
 -----------------------------|
 -----------------------------|
 --12----0----0----15--14--0--|

Q Q Q E E
 
 --------------------------|
 --------------------------|
 --------------------------|
 --12----0----0----10--14--|

|---3--|
Q Q Q E E E
 
 -----------------------------|
 -----------------------------|
 -----------------------------|
 --12----0----0----15--14--0--|

[E] [E] [E] [E] [E] [E] [E] [E]  
 
 --------------------------|
 --------------------------|
 --------------------------|
 --7--7--7--7--7--7--7--7--|

[E] [E] [E] [E] [E] [E] [E] [E]  
 
 --------------------------|
 --------------------------|
 --8--8--8--8--8--8--8--8--|
 --------------------------|

[E] [E] [E] [E] [E] [E] [E] [E]  
 
 --------------------------|
 --------------------------|
 --5--5--5--5--5--5--5--5--|
 --------------------------|

[E] [E] [E] [E] [E] [E] [E] [E]  
 
 --------------------------|
 --------------------------|
 --------------------------|
 --5--5--5--5--6--6--6--6--|

[E] [E] [E] [E] [E] [E] [E] [E]  
 
 --------------------------|
 --------------------------|
 --------------------------|
 --7--7--7--7--7--7--7--7--|

[E] [E] [E] [E] [E] [E] [E] [E]  
 
 --------------------------|
 --------------------------|
 --8--8--8--8--8--8--8--8--|
 --------------------------|

[E] [E] [E] [E] [E] [E] [E] [E]  
 
 --------------------------|
 --------------------------|
 --5--5--5--5--5--5--5--5--|
 --------------------------|

[E] [E] [E] [E] [E] [E] [E] [E]  
 
 --------------------------|
 --------------------------|
 --------------------------|
 --5--5--5--5--6--6--6--6--|

[E] [E] [E] [E] [E] [E] [E] [E]  
 
 --------------------------|
 --------------------------|
 --------------------------|
 --7--7--7--7--7--7--7--7--|

[E] [E] [E] [E] [E] [E] [E] [E]  
 
 --------------------------|
 --------------------------|
 --8--8--8--8--8--8--8--8--|
 --------------------------|

[E] [E] [E] [E] [E] [E] [E] [E]  
 
 --------------------------|
 --------------------------|
 --5--5--5--5--5--5--5--5--|
 --------------------------|

[E] [E] [E] [E] [E] [E] [E] [E]  
 
 --------------------------|
 --------------------------|
 --------------------------|
 --5--5--5--5--6--6--6--6--|

[E] [E] [E] [E] [E] [E] [E] [E]  
 
 --------------------------|
 --------------------------|
 --------------------------|
 --7--7--7--7--7--7--7--7--|

[E] [E] [E] [E] [E] [E] [E] [E]  
 
 --------------------------|
 --------------------------|
 --8--8--8--8--8--8--8--8--|
 --------------------------|

[E] [E] [E] [E] [E] [E] [E] [E]  
 
 --------------------------|
 --------------------------|
 --5--5--5--5--5--5--5--5--|
 --------------------------|

[E] [E] [E] [E] [E] [E] [E] [E]  
 
 --------------------------|
 --------------------------|
 --------------------------|
 --5--5--5--5--6--6--6--6--|

|--3--|
Q Q Q E E E
 
 ---------------------------|
 ---------------------------|
 ---------------------------|
 --7----7----7----10--9--0--|

|--3--|
Q Q Q E E E
 
 ---------------------------|
 ---------------------------|
 ---------------------------|
 --7----7----7----10--9--0--|

Q Q Q E E
 
 -----------------------|
 -----------------------|
 -----------------------|
 --7----7----7----5--9--|

[B] [B]  
 
 --------------------||
 --------------------||
 --------------------||
 --7-----------------||

Guitar
 
 E||-------|-------|-------|-------|-------|
 B||-------|-------|-------|-------|-------|
 G||-------|-------|-------|-------|-------|
 D||-------|-------|-------|-------|-------|
 A||-------|-------|-------|-------|-------|
 D||-------|-------|-------|-------|-------|
 -------|-------|-------|-------|-------|
 -------|-------|-------|-------|-------|
 -------|-------|-------|-------|-------|
 -------|-------|-------|-------|-------|
 -------|-------|-------|-------|-------|
 -------|-------|-------|-------|-------|
 -------|-------|-------|
 -------|-------|-------|
 -------|-------|-------|
 -------|-------|-------|
 -------|-------|-------|
 -------|-------|-------|

[E] [E] [E] [E] [E] [E] [E] [E]  
 
 --------x-----x-----4-----|
 --------4-----5-----x-----|
 --x-----x-----x-----x-----|
 --7-----------------------|
 --x-----------------------|
 --------------------------|

|--3--|
[E] [E] [E] [E] [E] [E] [E] [E] [E]  
 
 --5-----x-----x--------------|
 --x-----5-----6--------------|
 --x-----x-----x-----5--4--0--|
 -----------------------------|
 -----------------------------|
 -----------------------------|

[E] [E] [E] [E] [E] [E] [E] [E]  
 
 --------x-----x-----4-----|
 --------4-----5-----x-----|
 --x-----x-----x-----x-----|
 --7-----------------------|
 --x-----------------------|
 --------------------------|

|--3--|
[E] [E] [E] [E] [E] [E] [E] [E] [E]  
 
 --5-----x-----x--------------|
 --x-----5-----6--------------|
 --x-----x-----x-----5--4--0--|
 -----------------------------|
 -----------------------------|
 -----------------------------|

[E] [E] [E] [E] [E] [E] [E] [E]  
 
 --------x-----x-----2-----|
 --------2-----3-----x-----|
 --x-----x-----x-----x-----|
 --5-----------------------|
 --x-----------------------|
 --------------------------|

|--3--|
[E] [E] [E] [E] [E] [E] [E] [E] [E]  
 
 --3-----x-----x--------------|
 --x-----3-----4--------------|
 --x-----x-----x-----5--4--0--|
 -----------------------------|
 -----------------------------|
 -----------------------------|

[E] [E] [E] [E] [E] [E] [E] [E]  
 
 --------x-----x-----4-----|
 --------4-----5-----x-----|
 --x-----x-----x-----x-----|
 --7-----------------------|
 --x-----------------------|
 --------------------------|

|--3--|
[E] [E] [E] [E] [E] [E] [E] [E] [E]  
 
 --5-----x-----x--------------|
 --x-----5-----6--------------|
 --x-----x-----x-----5--4--0--|
 -----------------------------|
 -----------------------------|
 -----------------------------|

[E] [E] [E] [E] [E] [E] [E] [E]  
 
 --------------------------|
 --------------------------|
 --x-----x-----x-----x--x--|
 --7-----7-----7-----7--7--|
 --x-----x-----x-----x--x--|
 --------------------------|

[E] [E] [E] [E] [E] [E] [E] [E]  
 
 ------------------------------|
 ---x------x------x------x-----|
 --10-----10-----10-----10-----|
 ---x------x------x------x-----|
 ------------------------------|
 ------------------------------|

[E] [E] [E] [E] [E] [E] [E] [E]  
 
 --------------------------|
 --x-----x-----x-----x--x--|
 --7-----7-----7-----7--7--|
 --x-----x-----x-----x--x--|
 --------------------------|
 --------------------------|

[E] [E] [E] [E] [E] [E] [E] [E]  
 
 ----------------------------|
 ----------------------------|
 --x-----x-----x-----x-------|
 --5-----5-----6-----6--(6)--|
 --x-----x-----x-----x-------|
 ----------------------------|

[E] [E] [E] [E] [E] [E] [E] [E]  
 
 --------------------------|
 --------------------------|
 --x-----x-----x-----x--x--|
 --7-----7-----7-----7--7--|
 --x-----x-----x-----x--x--|
 --------------------------|

[E] [E] [E] [E] [E] [E] [E] [E]  
 
 ------------------------------|
 ---x------x------x------x-----|
 --10-----10-----10-----10-----|
 ---x------x------x------x-----|
 ------------------------------|
 ------------------------------|

[E] [E] [E] [E] [E] [E] [E] [E]  
 
 --------------------------|
 --x-----x-----x-----x--x--|
 --7-----7-----7-----7--7--|
 --x-----x-----x-----x--x--|
 --------------------------|
 --------------------------|

[E] [E] [E] [E] [E] [E] [E] [E]  
 
 ----------------------------|
 ----------------------------|
 --x-----x-----x-----x-------|
 --5-----5-----6-----6--(6)--|
 --x-----x-----x-----x-------|
 ----------------------------|

[E] [E] [E] [E] [E] [E] [E] [E]  
 
 --------x-----x-----4-----|
 --------4-----5-----x-----|
 --x-----x-----x-----x-----|
 --7-----------------------|
 --x-----------------------|
 --------------------------|

|--3--|
[E] [E] [E] [E] [E] [E] [E] [E] [E]  
 
 --5-----x-----x--------------|
 --x-----5-----6--------------|
 --x-----x-----x-----5--4--0--|
 -----------------------------|
 -----------------------------|
 -----------------------------|

[E] [E] [E] [E] [E] [E] [E] [E]  
 
 --------x-----x-----4-----|
 --------4-----5-----x-----|
 --x-----x-----x-----x-----|
 --7-----------------------|
 --x-----------------------|
 --------------------------|

|--3--|
[E] [E] [E] [E] [E] [E] [E] [E] [E]  
 
 --5-----x-----x--------------|-------|
 --x-----5-----6--------------|-------|
 --x-----x-----x-----5--4--0--|-------|
 -----------------------------|-------|
 -----------------------------|-------|
 -----------------------------|-------|
 -------|-------|-------|-------|-------|
 -------|-------|-------|-------|-------|
 -------|-------|-------|-------|-------|
 -------|-------|-------|-------|-------|
 -------|-------|-------|-------|-------|
 -------|-------|-------|-------|-------|

[E] [E] [E] [E] [E] [E] [E] [E]  
 
 -------|-------|--------x-----x-----4-----|
 -------|-------|--------4-----5-----x-----|
 -------|-------|--x-----x-----x-----x-----|
 -------|-------|--7-----------------------|
 -------|-------|--x-----------------------|
 -------|-------|--------------------------|

|--3--|
[E] [E] [E] [E] [E] [E] [E] [E] [E]  
 
 --5-----x-----x--------------|
 --x-----5-----6--------------|
 --x-----x-----x-----5--4--0--|
 -----------------------------|
 -----------------------------|
 -----------------------------|

[E] [E] [E] [E] [E] [E] [E] [E]  
 
 --------x-----x-----4-----|
 --------4-----5-----x-----|
 --x-----x-----x-----x-----|
 --7-----------------------|
 --x-----------------------|
 --------------------------|

|--3--|
[E] [E] [E] [E] [E] [E] [E] [E] [E]  
 
 --5-----x-----x--------------|
 --x-----5-----6--------------|
 --x-----x-----x-----5--4--0--|
 -----------------------------|
 -----------------------------|
 -----------------------------|

[E] [E] [E] [E] [E] [E] [E] [E]  
 
 --------x-----x-----2-----|
 --------2-----3-----x-----|
 --x-----x-----x-----x-----|
 --5-----------------------|
 --x-----------------------|
 --------------------------|

|--3--|
[E] [E] [E] [E] [E] [E] [E] [E] [E]  
 
 --3-----x-----x--------------|
 --x-----3-----4--------------|
 --x-----x-----x-----5--4--0--|
 -----------------------------|
 -----------------------------|
 -----------------------------|

[E] [E] [E] [E] [E] [E] [E] [E]  
 
 --------x-----x-----4-----|
 --------4-----5-----x-----|
 --x-----x-----x-----x-----|
 --7-----------------------|
 --x-----------------------|
 --------------------------|

|--3--|
[E] [E] [E] [E] [E] [E] [E] [E] [E]  
 
 --5-----x-----x--------------|
 --x-----5-----6--------------|
 --x-----x-----x-----5--4--0--|
 -----------------------------|
 -----------------------------|
 -----------------------------|

[E] [E] [E] [E] [E] [E] [E] [E]  
 
 --------------------------|
 --------------------------|
 --x-----x-----x-----x--x--|
 --7-----7-----7-----7--7--|
 --x-----x-----x-----x--x--|
 --------------------------|

[E] [E] [E] [E] [E] [E] [E] [E]  
 
 ------------------------------|
 ---x------x------x------x-----|
 --10-----10-----10-----10-----|
 ---x------x------x------x-----|
 ------------------------------|
 ------------------------------|

[E] [E] [E] [E] [E] [E] [E] [E]  
 
 --------------------------|
 --x-----x-----x-----x--x--|
 --7-----7-----7-----7--7--|
 --x-----x-----x-----x--x--|
 --------------------------|
 --------------------------|

[E] [E] [E] [E] [E] [E] [E] [E]  
 
 ----------------------------|
 ----------------------------|
 --x-----x-----x-----x-------|
 --5-----5-----6-----6--(6)--|
 --x-----x-----x-----x-------|
 ----------------------------|

[E] [E] [E] [E] [E] [E] [E] [E]  
 
 --------------------------|
 --------------------------|
 --x-----x-----x-----x--x--|
 --7-----7-----7-----7--7--|
 --x-----x-----x-----x--x--|
 --------------------------|

[E] [E] [E] [E] [E] [E] [E] [E]  
 
 ------------------------------|
 ---x------x------x------x-----|
 --10-----10-----10-----10-----|
 ---x------x------x------x-----|
 ------------------------------|
 ------------------------------|

[E] [E] [E] [E] [E] [E] [E] [E]  
 
 --------------------------|
 --x-----x-----x-----x--x--|
 --7-----7-----7-----7--7--|
 --x-----x-----x-----x--x--|
 --------------------------|
 --------------------------|

[E] [E] [E] [E] [E] [E] [E] [E]  
 
 ----------------------------|
 ----------------------------|
 --x-----x-----x-----x-------|
 --5-----5-----6-----6--(6)--|
 --x-----x-----x-----x-------|
 ----------------------------|

Q Q Q Q
 
 ----------------------|
 ----------------------|
 ----------------------|
 --7-------------------|
 --7-------------------|
 --7-------------------|

Q Q E E Q
 
 ------------------------|
 ------------------------|
 ------------------------|
 ---------------7--10----|
 ---------------7--10----|
 ---------------7--10----|

Q Q Q Q
 
 ----------------------|
 ----------------------|
 ----------------------|
 --7-------------------|
 --7-------------------|
 --7-------------------|

Q Q E E Q
 
 -----------------------|
 -----------------------|
 -----------------------|
 ---------------0--5----|
 ---------------0--5----|
 ---------------0--5----|

Q Q Q Q
 
 ----------------------|
 ----------------------|
 ----------------------|
 --7-------------------|
 --7-------------------|
 --7-------------------|

Q Q E E Q
 
 ------------------------|
 ------------------------|
 ------------------------|
 ---------------7--10----|
 ---------------7--10----|
 ---------------7--10----|

Q Q Q Q
 
 ----------------------|
 ----------------------|
 ----------------------|
 --7-------------------|
 --7-------------------|
 --7-------------------|
 |---3---| |---3---| |---3---| |---3-

[E] [E] [E] [E] [E] [E] [E] [E] [E] [E] [E] 
 
 ---------------------------------------------
 ---------------------------------------------
 ---------------------------------------------
 --12--12--12--12--12--12--12--12--12---------
 --12--12--12--12--12--12--12--12--12--15--14-
 --12--12--12--12--12--12--12--12--12--15--14-

|---3--|
Q Q Q E E E
 
 -----------------------------|
 -----------------------------|
 -----------------------------|
 --12----0----0---------------|
 --12----0----0----15--14--0--|
 --12----0----0----15--14--0--|

|---3--|
Q Q Q E E E
 
 -----------------------------|
 -----------------------------|
 -----------------------------|
 --12----0----0---------------|
 --12----0----0----15--14--0--|
 --12----0----0----15--14--0--|

|---3--|
Q Q Q E E E
 
 -----------------------------|
 -----------------------------|
 -----------------------------|
 --12----0----0---------------|
 --12----0----0----15--14--0--|
 --12----0----0----15--14--0--|

|---3--|
Q Q Q E E E
 
 -----------------------------|
 -----------------------------|
 -----------------------------|
 --12----0----0---------------|
 --12----0----0----15--14--0--|
 --12----0----0----15--14--0--|

Q Q Q E E
 
 ---------------------------|
 ---------------------------|
 ---------------------------|
 --12----0----0-------------|
 --12----0----0----10s--14--|
 --12----0----0----10s--14--|

|---3--|
Q Q Q E E E
 
 -----------------------------|
 -----------------------------|
 -----------------------------|
 --12----0----0---------------|
 --12----0----0----15--14--0--|
 --12----0----0----15--14--0--|

Q Q Q E E
 
 ---------------------------|
 ---------------------------|
 ---------------------------|
 --12----0----0-------------|
 --12----0----0----10s--14--|
 --12----0----0----10s--14--|

|---3--|
Q Q Q E E E
 
 -----------------------------|
 -----------------------------|
 -----------------------------|
 --12----0----0---------------|
 --12----0----0----15--14--0--|
 --12----0----0----15--14--0--|

[E] [E] [E] [E] [E] [E] [E] [E]  
 
 --------------------------|
 --------------------------|
 --------------------------|
 --7--7--7--7--7--7--7--7--|
 --7--7--7--7--7--7--7--7--|
 --7--7--7--7--7--7--7--7--|
 |--3--| |--3--| |--3--| |--3--| 

[E] [E] [E] [E] [E] [E] [E] [E] [E] [E] [E] [E]  
 
 --------------------------------------|
 --------------------------------------|
 --------------------------------------|
 --3--3--3--3--3--3--3--3--3--3--3--3--|
 --3--3--3--3--3--3--3--3--3--3--3--3--|
 --3--3--3--3--3--3--3--3--3--3--3--3--|

[E] [E] [E] [E] [E] [E] [E] [E]  
 
 --------------------------|
 --------------------------|
 --7--7--7--7--7--7--7--7--|
 --7--7--7--7--7--7--7--7--|
 --5--5--5--5--5--5--5--5--|
 --------------------------|
 |--3--| |--3--| |--3--| |--3--| 

[E] [E] [E] [E] [E] [E] [E] [E] [E] [E] [E] [E]  
 
 --------------------------------------|
 --------------------------------------|
 --------------------------------------|
 --5--5--5--5--5--5--6--6--6--6--6--6--|
 --5--5--5--5--5--5--6--6--6--6--6--6--|
 --5--5--5--5--5--5--6--6--6--6--6--6--|

[E] [E] [E] [E] [E] [E] [E] [E]  
 
 --------------------------|
 --------------------------|
 --------------------------|
 --7--7--7--7--7--7--7--7--|
 --7--7--7--7--7--7--7--7--|
 --7--7--7--7--7--7--7--7--|
 |--3--| |--3--| |--3--| |--3--| 

[E] [E] [E] [E] [E] [E] [E] [E] [E] [E] [E] [E]  
 
 --------------------------------------|
 --------------------------------------|
 --------------------------------------|
 --3--3--3--3--3--3--3--3--3--3--3--3--|
 --3--3--3--3--3--3--3--3--3--3--3--3--|
 --3--3--3--3--3--3--3--3--3--3--3--3--|

[E] [E] [E] [E] [E] [E] [E] [E]  
 
 --------------------------|
 --------------------------|
 --7--7--7--7--7--7--7--7--|
 --7--7--7--7--7--7--7--7--|
 --5--5--5--5--5--5--5--5--|
 --------------------------|
 |--3--| |--3--| |--3--| |--3--| 

[E] [E] [E] [E] [E] [E] [E] [E] [E] [E] [E] [E]  
 
 --------------------------------------|
 --------------------------------------|
 --------------------------------------|
 --5--5--5--5--5--5--6--6--6--6--6--6--|
 --5--5--5--5--5--5--6--6--6--6--6--6--|
 --5--5--5--5--5--5--6--6--6--6--6--6--|

[E] [E] [E] [E] [E] [E] [E] [E]  
 
 --------------------------|
 --------------------------|
 --------------------------|
 --7--7--7--7--7--7--7--7--|
 --7--7--7--7--7--7--7--7--|
 --7--7--7--7--7--7--7--7--|
 |--3--| |--3--| |--3--| |--3--| 

[E] [E] [E] [E] [E] [E] [E] [E] [E] [E] [E] [E]  
 
 --------------------------------------|
 --------------------------------------|
 --------------------------------------|
 --3--3--3--3--3--3--3--3--3--3--3--3--|
 --3--3--3--3--3--3--3--3--3--3--3--3--|
 --3--3--3--3--3--3--3--3--3--3--3--3--|

[E] [E] [E] [E] [E] [E] [E] [E]  
 
 --------------------------|
 --------------------------|
 --7--7--7--7--7--7--7--7--|
 --7--7--7--7--7--7--7--7--|
 --5--5--5--5--5--5--5--5--|
 --------------------------|
 |--3--| |--3--| |--3--| |--3--| 

[E] [E] [E] [E] [E] [E] [E] [E] [E] [E] [E] [E]  
 
 --------------------------------------|
 --------------------------------------|
 --------------------------------------|
 --5--5--5--5--5--5--6--6--6--6--6--6--|
 --5--5--5--5--5--5--6--6--6--6--6--6--|
 --5--5--5--5--5--5--6--6--6--6--6--6--|

[E] [E] [E] [E] [E] [E] [E] [E]  
 
 --------------------------|
 --------------------------|
 --------------------------|
 --7--7--7--7--7--7--7--7--|
 --7--7--7--7--7--7--7--7--|
 --7--7--7--7--7--7--7--7--|
 |--3--| |--3--| |--3--| |--3--| 

[E] [E] [E] [E] [E] [E] [E] [E] [E] [E] [E] [E]  
 
 --------------------------------------|
 --------------------------------------|
 --------------------------------------|
 --3--3--3--3--3--3--3--3--3--3--3--3--|
 --3--3--3--3--3--3--3--3--3--3--3--3--|
 --3--3--3--3--3--3--3--3--3--3--3--3--|

[E] [E] [E] [E] [E] [E] [E] [E]  
 
 --------------------------|
 --------------------------|
 --7--7--7--7--7--7--7--7--|
 --7--7--7--7--7--7--7--7--|
 --5--5--5--5--5--5--5--5--|
 --------------------------|
 |--3--| |--3--| |--3--| |--3--| 

[E] [E] [E] [E] [E] [E] [E] [E] [E] [E] [E] [E]  
 
 --------------------------------------|
 --------------------------------------|
 --------------------------------------|
 --5--5--5--5--5--5--6--6--6--6--6--6--|
 --5--5--5--5--5--5--6--6--6--6--6--6--|
 --5--5--5--5--5--5--6--6--6--6--6--6--|

|--3--|
Q Q Q E E E
 
 ---------------------------|
 ---------------------------|
 ---------------------------|
 --7----7----7--------------|
 --7----7----7----10--9--0--|
 --7----7----7----10--9--0--|

|--3--|
Q Q Q E E E
 
 ---------------------------|
 ---------------------------|
 ---------------------------|
 --7----7----7--------------|
 --7----7----7----10--9--0--|
 --7----7----7----10--9--0--|

Q Q Q E E
 
 ------------------------|
 ------------------------|
 ------------------------|
 --7----7----7-----------|
 --7----7----7----5s--9--|
 --7----7----7----5s--9--|

[B] [B]  
 
 --------------------||
 --------------------||
 --------------------||
 --7-----------------||
 --7-----------------||
 --7-----------------||

Duration Legend
 
 ---------------

W - whole
H - half
Q - quarter
E - 8th
S - 16th
T - 32nd
X - 64th
. - note dotted
|-n-| - n-tuplets
Tablature Legend
 
 ----------------

L - tied note
x - dead note
g - grace note
(n) - ghost note
> - accentuded note
NH - natural harmonic
AH - artificial harmonic
TH - tapped harmonic
SH - semi harmonic
PH - pitch harmonic
h - hammer on
p - pull off
b - bend
br - bendRelease
pb - preBend
pbr - preBendRelease
brb - bendReleaseBend
\n/ - tremolo bar dip
\n - tremolo bar dive
-/n - tremolo bar Release up
/n\ - tremolo bar inverted dip
/n - tremolo bar return
-\n - tremolo bar Release down
S - shift slide
s - legato slide
/ - slide into from below or out of upwards
\ - slide into from above or out of downwards
~ - vibrato
W - wide vibrato
tr - trill
TP - tremolo picking
T - tapping
S - slap
P - pop
< - fade in
^ - brush up
v - brush down

Important: The song above is NOT stored on the Chordie server. The original song is hosted at www.guitartabs.cc. Chordie works as a search engine and provides on-the-fly formatting. Chordie does not index songs against artists'/composers' will. To remove this song please click here.

Text color:
Chord color:
Chord grids: 
Font size:    
Page size: 

B E
Rate #1 of 2 versions

Login - add to songbook

SHARE PAGE  



You need to log in to post comments