Guitar Tabs, Chords and Lyrics
Server problems seems to be fixed. Chordie has been experiencing problems with songs disappearing. These issues now seems to be fixed, but still verifying the fix. If you find anything strange, please email admin@chordie.com.


Scenester  Big D and the Kids Table

SONG: Scenester
ALBUM: Gypsy Hill
TUNING: Standard
TIME: 4/4
KEY: F major
sfc
This tab isnt 100% correct but i have done this as a framework for others to work on.It
to be the best stab at it on the internet, so please feel free to copy and change any
you don't feel are right, because there are bits. Also, the rhthms not right, but listen
its easy to pickup.
INTRO
[F] [Bb]  
 
 E-x-1-x-1-x-1-x-1-|-x-1-x-1-x-1-11-|
 B-x-1-x-1-x-1-x-1-|-x-1-x-1-x-1-33-|
 G-x-2-x-2-x-2-x-2-|-x-2-x-2-x-2-33-|
 D-x-3-x-3-x-3-x-3-|-x-3-x-3-x-3-33-| x2
 A-x-3-x-3-x-3-x-3-|-x-3-x-3-x-3-11-|
 E-x-1-x-1-x-1-x-1-|-x-1-x-1-x-3----|

PRE-VERSE (horns)
[F] [Bb]  
 
 E-x-1-x-1-x-1-x-1-|-x-1-x-1-x-1-x-1-|-x-1-x-1-x-1-x-1-|-x-1-x-1-x-1-x-1-|
 B-x-1-x-1-x-1-x-1-|-x-1-x-1-x-1-x-1-|-x-3-x-3-x-3-x-3-|-x-3-x-3-x-3-x-3-|
 G-x-2-x-2-x-2-x-2-|-x-2-x-2-x-2-x-2-|-x-3-x-3-x-3-x-3-|-x-3-x-3-x-3-x-3-|
 D-x-3-x-3-x-3-x-3-|-x-3-x-3-x-3-x-3-|-x-3-x-3-x-3-x-3-|-x-3-x-3-x-3-x-3-|
 A-x-3-x-3-x-3-x-3-|-x-3-x-3-x-3-x-3-|-x-1-x-1-x-1-x-1-|-x-1-x-1-x-1-x-1-|
 E-x-1-x-1-x-1-x-1-|-x-1-x-1-x-1-x-1-|-----------------|-----------------|

[Am] [C] [Bb] [F]  
 
 E-x-5-x-5-x-5-x-5-|-x-3-x-3-x-1-x-1-|-x-1-x-1-x-1-x-1-|-x-1-x-1-x-1-x-1-|
 B-x-5-x-5-x-5-x-5-|-x-5-x-5-x-3-x-3-|-x-1-x-1-x-1-x-1-|-x-1-x-1-x-1-x-1-|
 G-x-5-x-5-x-5-x-5-|-x-5-x-5-x-3-x-3-|-x-2-x-2-x-2-x-2-|-x-2-x-2-x-2-x-2-|
 D-x-7-x-7-x-7-x-7-|-x-5-x-5-x-3-x-3-|-x-3-x-3-x-3-x-3-|-x-3-x-3-x-3-x-3-|
 A-x-7-x-7-x-7-x-7-|-x-3-x-3-x-1-x-1-|-x-3-x-3-x-3-x-3-|-x-3-x-3-x-3-x-3-|
 E-x-5-x-5-x-5-x-5-|-----------------|-x-1-x-1-x-1-x-1-|-x-1-x-1-x-1-x-1-|

[F] [Bb]  
 
 E-x-1-x-1-x-1-x-1-|-x-1-x-1-x-1-x-1-|-x-1-x-1-x-1-x-1-|-x-1-x-1-x-1-x-1-|
 B-x-1-x-1-x-1-x-1-|-x-1-x-1-x-1-x-1-|-x-3-x-3-x-3-x-3-|-x-3-x-3-x-3-x-3-|
 G-x-2-x-2-x-2-x-2-|-x-2-x-2-x-2-x-2-|-x-3-x-3-x-3-x-3-|-x-3-x-3-x-3-x-3-|
 D-x-3-x-3-x-3-x-3-|-x-3-x-3-x-3-x-3-|-x-3-x-3-x-3-x-3-|-x-3-x-3-x-3-x-3-|
 A-x-3-x-3-x-3-x-3-|-x-3-x-3-x-3-x-3-|-x-1-x-1-x-1-x-1-|-x-1-x-1-x-1-x-1-|
 E-x-1-x-1-x-1-x-1-|-x-1-x-1-x-1-x-1-|-----------------|-----------------|

[Am] [Dm] [C]  
 
 E-x-5-x-5-x-5-x-5-|-x-5-x-5-x-5-x-5-|-x-3-x-3-x-3-x-3-|-x-3-x-3-x-3-x-3-|
 B-x-5-x-5-x-5-x-5-|-x-6-x-6-x-6-x-6-|-x-5-x-5-x-5-x-5-|-x-5-x-5-x-5-x-5-|
 G-x-5-x-5-x-5-x-5-|-x-7-x-7-x-7-x-7-|-x-5-x-5-x-5-x-5-|-x-5-x-5-x-5-x-5-|
 D-x-7-x-7-x-7-x-7-|-x-7-x-7-x-7-x-7-|-x-5-x-5-x-5-x-5-|-x-5-x-5-x-5-x-5-|
 A-x-7-x-7-x-7-x-7-|-x-5-x-5-x-5-x-5-|-x-3-x-3-x-3-x-3-|-x-3-x-3-x-3-x-3-|
 E-x-5-x-5-x-5-x-5-|-----------------|-----------------|-----------------|

[C]  
 
 E-x-3-x-3-x-3-x-3-|-x-3-x-3-x-3-x-3-|
 B-x-5-x-5-x-5-x-5-|-x-5-x-5-x-5-x-5-|
 G-x-5-x-5-x-5-x-5-|-x-5-x-5-x-5-x-5-|
 D-x-5-x-5-x-5-x-5-|-x-5-x-5-x-5-x-5-|
 A-x-3-x-3-x-3-x-3-|-x-3-x-3-x-3-x-3-|
 E-----------------|-----------------|

VERSE
[F] [Bb]  
 
 E-x-1-x-1-x-1-x-1-|-x-1-x-1-x-1-x-1-|-x-1-x-1-x-1-x-1-|-x-1-x-1-x-1-x-1-|
 B-x-1-x-1-x-1-x-1-|-x-1-x-1-x-1-x-1-|-x-3-x-3-x-3-x-3-|-x-3-x-3-x-3-x-3-|
 G-x-2-x-2-x-2-x-2-|-x-2-x-2-x-2-x-2-|-x-3-x-3-x-3-x-3-|-x-3-x-3-x-3-x-3-|
 D-x-3-x-3-x-3-x-3-|-x-3-x-3-x-3-x-3-|-x-3-x-3-x-3-x-3-|-x-3-x-3-x-3-x-3-|
 A-x-3-x-3-x-3-x-3-|-x-3-x-3-x-3-x-3-|-x-1-x-1-x-1-x-1-|-x-1-x-1-x-1-x-1-|
 E-x-1-x-1-x-1-x-1-|-x-1-x-1-x-1-x-1-|-----------------|-----------------|

[Am] [C] [Bb]  
 
 E-x-5-x-5-x-5-x-5-|-x-3-x-3-x-3-x-3-|-x-1-x-1-x-1-x-1-|-x-1-x-1-x-1-x-1-|
 B-x-5-x-5-x-5-x-5-|-x-5-x-5-x-5-x-5-|-x-3-x-3-x-3-x-3-|-x-3-x-3-x-3-x-3-|
 G-x-5-x-5-x-5-x-5-|-x-5-x-5-x-5-x-5-|-x-3-x-3-x-3-x-3-|-x-3-x-3-x-3-x-3-|
 D-x-7-x-7-x-7-x-7-|-x-5-x-5-x-5-x-5-|-x-3-x-3-x-3-x-3-|-x-3-x-3-x-3-x-3-|
 A-x-7-x-7-x-7-x-7-|-x-3-x-3-x-3-x-3-|-x-1-x-1-x-1-x-1-|-x-1-x-1-x-1-x-1-|
 E-x-5-x-5-x-5-x-5-|-----------------|-----------------|-----------------|

[F] [Bb]  
 
 E-x-1-x-1-x-1-x-1-|-x-1-x-1-x-1-x-1-|-x-1-x-1-x-1-x-1-|-x-1-x-1-x-1-x-1-|
 B-x-1-x-1-x-1-x-1-|-x-1-x-1-x-1-x-1-|-x-3-x-3-x-3-x-3-|-x-3-x-3-x-3-x-3-|
 G-x-2-x-2-x-2-x-2-|-x-2-x-2-x-2-x-2-|-x-3-x-3-x-3-x-3-|-x-3-x-3-x-3-x-3-|
 D-x-3-x-3-x-3-x-3-|-x-3-x-3-x-3-x-3-|-x-3-x-3-x-3-x-3-|-x-3-x-3-x-3-x-3-|
 A-x-3-x-3-x-3-x-3-|-x-3-x-3-x-3-x-3-|-x-1-x-1-x-1-x-1-|-x-1-x-1-x-1-x-1-|
 E-x-1-x-1-x-1-x-1-|-x-1-x-1-x-1-x-1-|-----------------|-----------------|

[Am] [Bb] [F]  
 
 E-x-5-x-5-x-5-x-5-|-x-1-x-1-x-1-x-1-|-x-1-x-1-x-1-x-1-|-x-1-x-1-x-1-x-1-|
 B-x-5-x-5-x-5-x-5-|-x-3-x-3-x-3-x-3-|-x-1-x-1-x-1-x-1-|-x-1-x-1-x-1-x-1-|
 G-x-5-x-5-x-5-x-5-|-x-3-x-3-x-3-x-3-|-x-2-x-2-x-2-x-2-|-x-2-x-2-x-2-x-2-|
 D-x-7-x-7-x-7-x-7-|-x-3-x-3-x-3-x-3-|-x-3-x-3-x-3-x-3-|-x-3-x-3-x-3-x-3-|
 A-x-7-x-7-x-7-x-7-|-x-1-x-1-x-1-x-1-|-x-3-x-3-x-3-x-3-|-x-3-x-3-x-3-x-3-|
 E-x-5-x-5-x-5-x-5-|-----------------|-x-1-x-1-x-1-x-1-|-x-1-x-1-x-1-x-1-|

[F] [F]  
 
 E---------x-1-x-1-|-x-1-x-1-x-1-x-1-|---------x-1-x-1-|-x-1-x-1-x-1-x-1-|
 B---------x-1-x-1-|-x-1-x-1-x-1-x-1-|---------x-1-x-1-|-x-1-x-1-x-1-x-1-|
 G---------x-2-x-2-|-x-2-x-2-x-2-x-2-|---------x-2-x-2-|-x-2-x-2-x-2-x-2-|
 D---------x-3-x-3-|-x-3-x-3-x-3-x-3-|---------x-3-x-3-|-x-3-x-3-x-3-x-3-|
 A---------x-3-x-3-|-x-3-x-3-x-3-x-3-|---------x-3-x-3-|-x-3-x-3-x-3-x-3-|
 E--1--1---x-1-x-1-|-x-1-x-1-x-1-x-1-|--1--1---x-1-x-1-|-x-1-x-1-x-1-x-1-|

[Bb] [Dm] [C]  
 
 E-x-1-x-1-x-1-x-1-|-x-1-x-1-x-1-x-1-|-x-5-x-5-x-5-x-5-|-x-3-x-3-x-3-x-3-|
 B-x-3-x-3-x-3-x-3-|-x-3-x-3-x-3-x-3-|-x-6-x-6-x-6-x-6-|-x-5-x-5-x-5-x-5-|
 G-x-3-x-3-x-3-x-3-|-x-3-x-3-x-3-x-3-|-x-7-x-7-x-7-x-7-|-x-5-x-5-x-5-x-5-|
 D-x-3-x-3-x-3-x-3-|-x-3-x-3-x-3-x-3-|-x-7-x-7-x-7-x-7-|-x-5-x-5-x-5-x-5-|
 A-x-1-x-1-x-1-x-1-|-x-1-x-1-x-1-x-1-|-x-5-x-5-x-5-x-5-|-x-3-x-3-x-3-x-3-|
 E-----------------|-----------------|-----------------|-----------------|

[Bb]  
 
 E-x-1-x-1-x-1-x-1-|-x-1-x-1-x-1-x-1-|
 B-x-3-x-3-x-3-x-3-|-x-3-x-3-x-3-x-3-|
 G-x-3-x-3-x-3-x-3-|-x-3-x-3-x-3-x-3-|
 D-x-3-x-3-x-3-x-3-|-x-3-x-3-x-3-x-3-|
 A-x-1-x-1-x-1-x-1-|-x-1-x-1-x-1-x-1-|
 E-----------------|-----------------|

[F] [Bb]  
 
 E---------x-1-x-1-|-x-1-x-1-x-1-x-1-|---------x-1-x-1-|-x-1-x-1-x-1-x-1-|
 B---------x-1-x-1-|-x-1-x-1-x-1-x-1-|---------x-3-x-3-|-x-3-x-3-x-3-x-3-|
 G---------x-2-x-2-|-x-2-x-2-x-2-x-2-|---------x-3-x-3-|-x-3-x-3-x-3-x-3-|
 D---------x-3-x-3-|-x-3-x-3-x-3-x-3-|---------x-3-x-3-|-x-3-x-3-x-3-x-3-|
 A---------x-3-x-3-|-x-3-x-3-x-3-x-3-|--1--1---x-1-x-1-|-x-1-x-1-x-1-x-1-|
 E--1--1---x-1-x-1-|-x-1-x-1-x-1-x-1-|-----------------|-----------------|

[Am] [Dm] [C]  
 
 E-x-5-x-5-x-5-x-5-|-x-5-x-5-x-5-x-5-|-x-3-x-3-x-3-x-3-|-x-3-x-3-x-3-x-3-|
 B-x-5-x-5-x-5-x-5-|-x-6-x-6-x-6-x-6-|-x-5-x-5-x-5-x-5-|-x-5-x-5-x-5-x-5-|
 G-x-5-x-5-x-5-x-5-|-x-7-x-7-x-7-x-7-|-x-5-x-5-x-5-x-5-|-x-5-x-5-x-5-x-5-|
 D-x-7-x-7-x-7-x-7-|-x-7-x-7-x-7-x-7-|-x-5-x-5-x-5-x-5-|-x-5-x-5-x-5-x-5-|
 A-x-7-x-7-x-7-x-7-|-x-5-x-5-x-5-x-5-|-x-3-x-3-x-3-x-3-|-x-3-x-3-x-3-x-3-|
 E-x-5-x-5-x-5-x-5-|-----------------|-----------------|-----------------|

[C]  
 
 E-x-3-x-3-x-3-x-3-|-x-3-x-3-x-3-x-3-|
 B-x-5-x-5-x-5-x-5-|-x-5-x-5-x-5-x-5-|
 G-x-5-x-5-x-5-x-5-|-x-5-x-5-x-5-x-5-|
 D-x-5-x-5-x-5-x-5-|-x-5-x-5-x-5-x-5-|
 A-x-3-x-3-x-3-x-3-|-x-3-x-3-x-3-x-3-|
 E-----------------|-----------------|

CHORUS
[F] [Bb]  
 
 E-x-1-x-1-x-1-x-1-|-x-1-x-1-x-1-x-1-|-x-1-x-1-x-1-x-1-|-x-1-x-1-x-1-x-1-|
 B-x-1-x-1-x-1-x-1-|-x-1-x-1-x-1-x-1-|-x-3-x-3-x-3-x-3-|-x-3-x-3-x-3-x-3-|
 G-x-2-x-2-x-2-x-2-|-x-2-x-2-x-2-x-2-|-x-3-x-3-x-3-x-3-|-x-3-x-3-x-3-x-3-|
 D-x-3-x-3-x-3-x-3-|-x-3-x-3-x-3-x-3-|-x-3-x-3-x-3-x-3-|-x-3-x-3-x-3-x-3-|
 A-x-3-x-3-x-3-x-3-|-x-3-x-3-x-3-x-3-|-x-1-x-1-x-1-x-1-|-x-1-x-1-x-1-x-1-|
 E-x-1-x-1-x-1-x-1-|-x-1-x-1-x-1-x-1-|-----------------|-----------------|

[Bb] [F]  
 
 E-x-1-x-1-x-1-x-1-|-x-1-x-1-x-1-x-1-|-x-1-x-1-x-1-x-1-|-x-1-x-1-x-1-x-1-|
 B-x-3-x-3-x-3-x-3-|-x-3-x-3-x-3-x-3-|-x-1-x-1-x-1-x-1-|-x-1-x-1-x-1-x-1-|
 G-x-3-x-3-x-3-x-3-|-x-3-x-3-x-3-x-3-|-x-2-x-2-x-2-x-2-|-x-2-x-2-x-2-x-2-|
 D-x-3-x-3-x-3-x-3-|-x-3-x-3-x-3-x-3-|-x-3-x-3-x-3-x-3-|-x-3-x-3-x-3-x-3-|
 A-x-1-x-1-x-1-x-1-|-x-1-x-1-x-1-x-1-|-x-3-x-3-x-3-x-3-|-x-3-x-3-x-3-x-3-|
 E-----------------|-----------------|-x-1-x-1-x-1-x-1-|-x-1-x-1-x-1-x-1-|

x2
BREAKDOWN
[F5] [Bb5] [F5]  
 
 E-----------------|-----------------|-----------------|-----------------|
 B-----------------|-----------------|-----------------|-----------------|
 G-----------------|-----------------|-----------------|-----------------|
 D-----------------|-3-3-3-3-3-3-3-3-|-3-3-3-3-3-3-3-3-|-----------------|
 A-3-3-3-3-3-3-3-3-|-1-1-1-1-1-1-1-1-|-1-1-1-1-1-1-1-1-|-3-3-3-3-3-3-3-3-|
 E-1-1-1-1-1-1-1-1-|-----------------|-----------------|-1-1-1-1-1-1-1-1-|

pm.....................................................................
x2
END ON
[F]  
 
 E-1--------------|
 B-1--------------|
 G-2--------------|
 D-3--------------|
 A-3--------------|
 E-1--------------|


Important: The song above is NOT stored on the Chordie server. The original song is hosted at www.guitartabs.cc. Chordie works as a search engine and provides on-the-fly formatting. Chordie does not index songs against artists'/composers' will. To remove this song please click here.

Text color:
Chord color:
Chord grids: 
Font size:    
Page size: 

Am Bb Bb5 C Dm F F5
Rate #3 of 3 versions

Jango Player

Login - add to songbook

SHARE PAGE  




You need to log in to post comments