Guitar Tabs, Chords and Lyrics
Major upgrade!! After one year development the new version of Chordie is now online! Please give feedback.


Kiss the Rain  Billie Myers

Intro:
 
 ------

Asus2 E F#m Dsus2 (x2)
*
* = upstroke
Verse 1:
 
 --------

Hell[Asus2]o. [E] Can you hear me?[F#m]
Am I [Dsus2]getting through to you?
Well hell[Asus2]o. Is it [E]late there? There's [F#m]laughter on the line
Are you [Dsus2]sure you're there alone?
'Cause [E]I'm ... I'm trying [F#m]to explain something's[E/G#] wrong,
you just don't [F#m]sound the same. Why don't[E/G#] you, why don't you,
go out[D]side, go outside?
Chorus 1:
 
 ---------

Kiss the [A]rain, whenever you [C#m7]need me,
Kiss the [D]rain, whenever I'm [E]gone too long.
If your [A]lips feel hungry and [C#m7]thirsty, kiss the [D]rain
and wait for the [E]dawn.
Keep in [A]mind we're under the [C#m7]same sky, and the [D]nights
as empty for [F#m]me as for [E]you.
If you [A]feel you can't wait 'til [C#m7]morning,
kiss the [D]rain, kiss the r[Dm]ain.
Verse 2:
 
 --------

Kiss the r[Asus2]ain..... [E] Kiss the [F#m]rain, [Dsus2] kiss the rain.
Well hel[Asus2]lo, do you [E]miss me? I [F#m]hear you say you do,
but not the [Dsus2]way I'm missing you, so what's [Asus2]new?
How's th[E]e weather? Is it [F#m]stormy where you are?
'Cause [Dsus2]I'm so close but it feels like you're so [E]far.
Oh it wouldn't mean [F#m]anything,
if you [E/G#]knew what I'm left i[F#m]magining,
in my [E/G#]mind, in my mind, would you [Dsus2]go, would you go?
Bridge:
 
 -------

Kiss the [Asus2]rain.... [E] Kiss the[F#m] rain.[Dsus2]
[Asus2] [E] As you [F#m]fall over me, think of [D]me, think of me,
think of [D]me, only me.
The lead guitar played along with the above is as follows....
[Asus2] [E] [F#m]  
 
 e-----------5--7-7--5--------------5--7-7--5-------------5--7-7--5---|
 B--------5--5--5-5--5-----------5--5--5-5--5----------5--5--5-5--5---|
 G--6--7----------------7-7-6-7----------------7--6-7-----------------|
 D--------------------------------------------------------------------|
 A--------------------------------------------------------------------|
 E--------------------------------------------------------------------|

[Dsus2] [Asus2]  
 
 e--/-9-9-9--5-5-5--7-7-7--5-5--5-5-5------------5--7-7--5--|
 B----5-5-5--5-5-5--5-5-5--5-5--5-5-5---------5--5--5-5--5--|
 G--------------------------------------6--7----------------|
 D----------------------------------------------------------|
 A----------------------------------------------------------|
 E----------------------------------------------------------|

[E] [F#m]  
 
 e--------------5--7-7--5--/--9-9-9--5-5-5--7-7-7--5-5--5-5-5---|
 B-----------5--5--5-5--5-----5-5-5--5-5-5--5-5-5--5-5--5-5-5---|
 G--7-7-6-7-----------------------------------------------------|
 D--------------------------------------------------------------|
 A--------------------------------------------------------------|
 E--------------------------------------------------------------|

[D]  
 
 e--10-10-10-10-10-10-10-10--(etc)---------------------------|
 B---7--7--7--7--7--7--7--7----------------------------------|
 G-----------------------------------------------------------|
 D-----------------------------------------------------------|
 A-----------------------------------------------------------|
 E-----------------------------------------------------------|

Chorus 2:
 
 ---------

(Chords as Chorus 1)
Lyrics the same except for "lonely and thirsty"... instead,
sing "hungry and tempted".
Outro:
 
 ------

Kiss the [Asus2]rain.....[E].........[F#m]........ [D]Kiss the rain.
(kiss the rain)
[Asus2]Go outside, [E] go outside, why don't yo[F#m]u kiss the rain?
[D]Kiss........[Asus2] the rain.
[Asus2]Hello, can you hear me? Can you hear me?
[Asus2]Do you miss me, the way I miss you?
(Asus2 is fingerpicked)
Any comments/corrections bethanjane@yahoo.co.uk

Important: The song above is NOT stored on the Chordie server. The original song is hosted at www.guitartabs.cc. Chordie works as a search engine and provides on-the-fly formatting. Chordie does not index songs against artists'/composers' will. To remove this song please click here.

Text color:
Chord color:
Chord grids: 
Font size:    
Page size: 

A Asus2 C#m7 D Dm Dsus2 E E/G# F#m
Rate #1 of 7 versions

Jango Player

Login - add to songbook

SHARE PAGE  




You need to log in to post comments