Guitar Tabs, Chords and Lyrics
Server problems seems to be fixed. Chordie has been experiencing problems with songs disappearing. These issues now seems to be fixed, but still verifying the fix. If you find anything strange, please email admin@chordie.com.


There Is Power in a Union  Billy Bragg

INTRO:
[C] [G] [D] [Dsus4] [D]  
 
 e:----------------------------------------3333-------------|
 B:-O--1--3--3--3--3-----------11-----11---2222-------------|
 G:-O--0--0--0--0--0--------------0---00---0000---0--0----00|
 D:---------------------(12)---22--hO-22---0000---2--2----22|
 A:---------------------(12)---33----------3000---3--3----33|
 E:----------------------------------------3333---2--3----22|

[C] [G] [D] [GD]  
 
 e:----------------------------------------3333------3----|
 B:-O--1--3--3--3--3-----------11-----11---2222------2----|
 G:-O--0--0--0--0--0--------------0---00---0000---0--0----|
 D:---------------------(12)---22--hO-22---0000---2--0----|
 A:---------------------(12)---33----------3000---3--3----|
 E:----------------------------------------3333---2--3----|

Chords:
[G]There is power in a factory, power in the land[C]
[G]Power in the hand of the worker[D] [Dus4] [D]
[G]But it all amounts to nothing if together we d[C]on't stand
T[G]here is power in a Union[D] [G]
[G]Now the lessons of the past were all learned w[C]ith workers blood
[G]The mistakes of the bosses we must pay for[D] [Dus4] [D]
[G]From the cities and the farmlands to trenches full of mud[C]
[G]War has always been the bosses way, sir[D] [G]
[G]The Union forever defending our rights
Down with the blackleg, all workers unite[D]
[G]With our brothers and our sisters from many far-off land[C]s
[G]There is power in a Union[D] [G]
[G]Now I long for the morning that they realise[C]
[G]Brutality and unjust laws cannot defeat us[D] [Dus4] [D]
[G]But who'll defend the workers who cannot organise[C]
[G]When the bosses send there lackeys out to cheat us?[D] [G]
[G]Money speaks for money, the Devil for his own
Who comes to speak for the skin and the bone?[D]
[G]What a comfort to the widow, a light to the child[C]
[G]There is power in a Union[D] [G]
Solo:
 
 e:---------------------------------2-|
 B:-O--1-3333-5-33-103--3333-533-10-3-|
 G:-O--0-0000-0-00-000--0000-000-00-2-|
 D:-----------------------------------|
 A:-----------------------------------|
 E:-----------------------------------|
 e:----------------------------------------3333------3-|
 B:-O--1--3--3--3--3-----------11-----11---2222------2-|
 G:-O--0--0--0--0--0--------------0---00---0000---0--0-|
 D:--------------------!(12)---22--hO-22---0000---2--0-|
 A:--------------------!(12)---33----------3000---3--3-|
 E:----------------------------------------3333---2--3-|

[G]The Union forever defending our rights
Down with the blackleg, all workers unite[D]
[G]With our brothers and our sisters from many far-off land[C]s
[G]There is power in a Union [D] [G]

Important: The song above is NOT stored on the Chordie server. The original song is hosted at www.guitartabs.cc. Chordie works as a search engine and provides on-the-fly formatting. Chordie does not index songs against artists'/composers' will. To remove this song please click here.

Text color:
Chord color:
Chord grids: 
Font size:    
Page size: 

C D Dsus4 G
Rate #0 of 3 versions

Login - add to songbook

SHARE PAGE  




You need to log in to post comments