Guitar Tabs, Chords and Lyrics
Major upgrade!! After one year development the new version of Chordie is now online! Please give feedback.


White Wedding  Billy Idol

Intro:
[E] [B5] [B5]  
Main Lick:
[Bm] [E] [D] [Bm]  
 
 e|-2-------|-----2----|-0~-------------|-2~-------------|-2-------|
 B|---3-----|---3---3--|-0~-------------|-3~-------------|---3-----|
 G|-----4---|-4--------|-1~-------------|-2~-------------|-----4---|
 D|-------4-|----------|-2~-------------|-0~-------------|-------4-|
 A|---------|----------|----------------|----------------|---------|
 E|---------|----------|----------------|----------------|---------|

[Bm] [D5] [E] [B]  
 
 P.M.--------------|
 e|-----2----|-5~-------------|-4~-------------|-------------------|
 B|---3---3--|-3~-------------|-6~-------------|-------------------|
 G|-4--------|-2~-------------|-4~-------------|-------------------|
 D|----------|-0~-------------|----------------|-------------------|
 A|----------|----------------|----------------|-2-2-2-2-2-2-2-2---|
 E|----------|----------------|----------------|-------------------|

[B]  
 
 P.M.--------------------------------------------------|
 e|-----------------|-----------------|-------------------|
 B|-----------------|-----------------|-------------------|
 G|-----------------|-----------------|-------------------|
 D|-----------------|-----------------|-------------------|
 A|-2-2-2-2-2-2-2-2-|-2-2-2-2-2-2-2-2-|-2-2-2-2-2-2-2-2---|
 E|-----------------|-----------------|-------------------|

Verse:
[B]Hey little sister what have you done?[A] [E]
[B]Hey little sister whos the only one?[A] [E]
Pre-Chorus:
[B]Hey little sister whos your superman?
[A]Hey little sister whos the one you want?
[B]Hey little sister shotgun
Chorus:
Its a [A5]nice day to [E5]start again[B5]
Its a [E5]nice day for a [D5]white wedding[B5]
Its a ni[E5]ce day to
[D]Start Again B
Verse:
H[B]ey little sister who si it your with?[A] [E]
H[B]ey little sister whats you(????) wish?[A] [E]
Pre-Chorus:
[B]Hey little sister shotgun ohh yeah
[A]Hey little sister whos your superman
[B]Hey little sister shotgun
Chorus:
Its a [A5]nice day to [E5]start again[B5]
Its a [E5]nice day for a [D5]white wedding[B5]
Its a [E5]nice day to [D5]start a[B5]gain[B]
Main Lick:
[Bm] [E] [D]  
 
 e|-2-------|-----2----|-0~-------------|-2~-------------|
 B|---3-----|---3---3--|-0~-------------|-3~-------------|
 G|-----4---|-4--------|-1~-------------|-2~-------------|
 D|-------4-|----------|-2~-------------|-0~-------------|
 A|---------|----------|----------------|----------------|
 E|---------|----------|----------------|----------------|

( Tab from: http://www.guitartabs.cc/tabs/b/billy_idol/white_wedding_tab_ver_3.html )
[Bm] [D5] [E]  
 
 e|-2-------|-----2----|-5~-------------|-4~-------------|
 B|---3-----|---3---3--|-3~-------------|-6~-------------|
 G|-----4---|-4--------|-2~-------------|-4~-------------|
 D|-------4-|----------|-0~-------------|----------------|
 A|---------|----------|----------------|----------------|
 E|---------|----------|----------------|----------------|

[Bm]  
 
 e|-2-------|-----2---|-2-------|-----2---|-2-------|-----2---|
 B|---3-----|---3---3-|---3-----|---3---3-|---3-----|---3---3-|
 G|-----4---|-4-------|-----4---|-4-------|-----4---|-4-------|
 D|-------4-|---------|-------4-|---------|-------4-|---------|
 A|---------|---------|---------|---------|---------|---------|
 E|---------|---------|---------|---------|---------|---------|

[Bm]  
 
 e|-2-------|-----------|---------|
 B|---3-----|---0-3/5-3-|-2-------|
 G|-----4-2-|-1---------|---2---4-|
 D|---------|-----------|-----4---|
 A|---------|-----------|---------|
 E|---------|-----------|---------|

Pick it up!
Bridge:
[A5]Take me back home [E5]yeah
Verse:
[B]Hey little sister what have you done?[A] [E]
[B]Hey little sister whos the only one? [A](only, [E]one and only)
Pre-Chorus:
[B]I've been away for so long(So long)
[A]I've been away for so long(So long)
[B]I let you go for so long
Chorus:
Its a [A5]nice day to [E5]start again[B5]
Its a [E5]nice day for a [D5]white wedding[B5]
Its a [E5]nice day to [D5]start a[B5]gain[B]
Bridge:
[B]There is nothing fair in this world baby[Bm]
[B]There is nothing safe in this world[Bm]
[B]And there nothing sure in this world[Bm]
[Bm]And theres nothing pure in this world[E5] [D5]
[B5]And theres something left in this world[D5] [E5]
[B5]Start again
Chorus:
Its a n[A5]ice day to s[E5]tart again[B5]
Its a [E5]nice day for a [D5]white wedding[B5]
Its a [E5]nice day to [D5]start a[B5]gain[B]
Its a [A5]nice day to [E5]start again[B5]
Its a [E5]nice day for a [D5]white wedding[B5]
Its a [E5]nice day to [D5]start a[B5]gain[B]
Repete and Fade
Also heres a riff played throughout the entire song with a few pauses.
 
 e|---------------------|----------------------|
 B|---------------------|----------------------|
 G|:------7-----7-----7-|-7--6--6--6--6--7----:|
 D|:------7-----7-----7-|-7--7--7--7--7--7----:|
 A|--x-x-----x-----x----|-------------------x--|
 E|---------------------|----------------------|

See this? This is my boom stick! The 12-gauge double-barreled Remington. S-Mart's top of
the line. You can find this in the sporting goods department. That's right, this sweet
baby was made in Grand Rapids, Michigan. Retails for about $109.95. It's got a walnut
stock, cobalt blue steel, and a hair trigger. That's right. Shop smart. Shop S-Mart.
You got that?
Andy Anderson

Important: The song above is NOT stored on the Chordie server. The original song is hosted at www.guitartabs.cc. Chordie works as a search engine and provides on-the-fly formatting. Chordie does not index songs against artists'/composers' will. To remove this song please click here.

Text color:
Chord color:
Chord grids: 
Font size:    
Page size: 

A A5 B B5 Bm D D5 E E5
Rate #1 of 9 versions

Jango Player

Login - add to songbook

SHARE PAGE  




You need to log in to post comments