Guitar Tabs, Chords and Lyrics
Major upgrade!! After one year development the new version of Chordie is now online! Please give feedback.


Circles  Birds of Tokyo

Circles - Birds of Tokyo. (Self Titled Album)
Tabbed by J.
This is my first upload :)
Really love this song, so thought i'd tab it out rather than leave as a note in my music book.
its.just.j@hotmail.com (any comments/additions)
Intro, 1st & 2nd Verse.
[D] [F] [C] [G]  
 
 e|----------------------------------------------|
 b|----------------------------------------------|
 g|----------------------------------------------|
 d|-------7----------5---------2----------8-(10)-|\ Picking between these for rhythm.
 a|---5----------8---------3---------10----------|/
 E|--(5)--------(8)-------(3)-------(10)---------|

Notes of E string help if your on your own, not essential.
Listen to track for rhythm, these are just the shapes.
Added notes between 1st and 2nd verse.
[D] [F] [C] [G]  
 
 e|----------------------------------------------|
 b|----------------------------------------------|
 g|----------------------------------------------|
 d|-------7-8-----3---5---------2-----------8-10-|
 a|---5-----------x---------3---------10---------|
 E|--(5)----------1--------(3)-------(10)--------|

Chours:
[D] [F] [C] [G]  
 
 e|----------------------------------------------|
 b|----------------------------------------------|
 g|--------------1--------------------4--(5)-----|
 d|---7----------3---------5----------5----------| Palm Muted.
 a|---5----------3---------3----------5----------|
 E|---5----------1---------3----------3----------|

Solo and Verse 3.
[D] [C] [G] [G]  
 
 e|-------------------------------------|
 b|-------------------------------------|
 g|----------------------4--------4-----|
 d|---7-------5----------5--------5-----|
 a|---5-------3----------5--------3-----|
 E|---5-------3----------3--------3-----|

Bridge:
D C C(8th) G
 
 e|---------------------------------|
 b|---------------------------------|
 g|------------------7--------4-----|
 d|---7-------5------10-------5-----|
 a|---5-------3------10-------3-----|
 E|---0-------0------8--------3-----|

Not sure of the third chord here, sounds close as a at 8th fret.
Intro: D/F/C/G (riff pattern)
I[D]'m being followed by my sh[F]adow; he's been creeping ar[C]ound,
asking where I've b[G]een
H[D]e keeps tapping on my shou[F]lder, telling me its o[C]ver,
so where do I be[G]gin?
(riff pattern with extra notes)
T[D]hese dark days are getting har[F]der, I feel I'm treading wa[C]ter,
so will sink or s[G]wim?
R[D]oll on, push a little fur[F]ther, I keep saying is this wo[C]rth it,
or should I just give [G]in? I don't know..[D]
D F C G (palm muted)
I don't know which way I'm supposed to spin, in this circle
And I won't waste my time on your concern, till its over
Solo: D/C/G/G
I[D] look back on a distant bo[C]rder, I fear I'm getting ol[G]der, There's so much that I mi[G]ssed
Walk on following a faint line, see if I can define, where I came undone
D F C G (palm muted)
I don't know which way I'm supposed to spin, in this circle
And I won't waste my time on your concern,till it's over
[D]And I will wait my t[F]urn, my time will co[C]me, This ain't o[G]ver
And I can't wait no more, no sweet return, This is over
D C C(8th) G
So it is - No sweet return, So it is - No sweet return
So it is - No sweet return, So it is - No sweet return
This is over....
D/F/C/G similar to into riff pattern.Finish with D chord.

Important: The song above is NOT stored on the Chordie server. The original song is hosted at www.guitartabs.cc. Chordie works as a search engine and provides on-the-fly formatting. Chordie does not index songs against artists'/composers' will. To remove this song please click here.

Text color:
Chord color:
Chord grids: 
Font size:    
Page size: 

C D F G
Rate #0 of 2 versions

Jango Player

Login - add to songbook

SHARE PAGE  




You need to log in to post comments