Guitar Tabs, Chords and Lyrics
Server problems seems to be fixed. Chordie has been experiencing problems with songs disappearing. These issues now seems to be fixed, but still verifying the fix. If you find anything strange, please email admin@chordie.com.


Eduardo  Birds of Tokyo

 
 -----------------------------------------------------------------------------

EDUARDO - Birds Of Tokyo
 
 -----------------------------------------------------------------------------

Tabbed by: Refugeesus
Email: bxy959@hotmail.com or www.myspace.com/sinistertones
Tuning: Drop D
Very loose translation of the song, be liberal with the love :)
Lyrics
E5 C#5\
cmon buy me another i cant i cant beat it
send me another and let's get it on
tasting another i cant i cant beat it
C#5 'D'
sell me another i cant get it off this wishlist
E5 C#5\
cmon roll me another i cant i cant beat it
line me another and let's get it on
fetch me another i cant i cant beat it
loan me another and write it on your [F]list
Hey [A5]im still standing alone
Yeah i [F5]know but i don't think you think [A5]so
And im [F5]ready to give [A5]in tonight
yeah i [F5]know but i dont think you think [A5]so
C#5 'D'
You're such a fake...
[E5]cmon [C#5]buy me another i cant i cant beat it
send me another and let's get it on
tasting another i cant i cant beat it
C#5 'D'
sell me another i cant get it off this wishlist
C#5 'D' C#5 'D'
see me drown here what you say kid?
C#5 'D' F5
i'm you're best friend let's go
Hey [A5]im still standing alone
Yeah i [F5]know but i don't think you think [A5]so
And im [F5]ready to give [A5]in tonight
yeah i [F5]know but i dont think you think [A5]so
C#5 'D'
You're such a fake ah ha haa...
(I can't nail this bit, go for it )
hey man come on man i said
hey man come on man pick another
hey man come on man i said
hey man come on man pick another
hey man come on man i said
hey man come on man pick another
hey man come on man i said
hey man come on man pick another
Intro
( Tab from: http://www.guitartabs.cc/tabs/b/birds_of_tokyo/eduardo_crd.html )
C#5 Open D C#5 D5 C#5 Open D C#5
 
 e|----------------------------------------------------|
 B|----------------------------------------------------|
 G|----------------------------------------------------|
 D|-6-6---------------6-6-----7-7------6-6----------6\-|
 A|-4-4-0--0-0-0------4-4-0-0-5-5------4-4-0--0-0-0-4\-|
 D|-----0--0-0-0----------0-0--------------0--0-0-0----|

C#5 Open D C#5 E5 C#5 B5 C#5
 
 e|----------------------------------------------------|
 B|----------------------------------------------------|
 G|--------------------------------------------7-7-----|
 D|-6-6---------------6-6-----9-9-9----6-6-----5-5-6\--|
 A|-4-4-0--0-0-0------4-4-0-0-7-7-7----4-4-0-0-----4\--|
 D|-----0--0-0-0----------0-0--------------0-0---------|

C#5 Open D C#5 D5 C#5
 
 e|----------------------------------------------------|
 B|----------------------------------------------------|
 G|----------------------------------------------------|
 D|-----6-6-----------6-6-----7-7-7-6\-----------------|
 A|-4-4-4-4-0--0-0-0--4-4-0-0-5-5-5-4\-----------------|
 D|---------0--0-0-0------0-0--------------------------|

[F5] [A5] [F5] [A5]  
 
 e|----------------------------------------------------------|
 B|----------------------------------------------------------|
 G|---------------2----------------------------------------2-|
 D|------3--------2--------------------3-------------------2-|
 A|------3--------0--------------------3-------------------0-|
 D|------3-----------------------------3---------------------|

let's go.. i'm still... Yes i know.... you think so oo oa
[F] [A5] [F] [A5]  
 
 e|-----------------------------------------------------------------------|
 B|-----------------------------------------------------------------------|
 G|--------------------------2------------------------------------2-------|
 D|--------3-----------------2------------------3-----------------2-------|
 A|--------3-----------------0------------------3-----------------0-------|
 D|--------3------------------------------------3-------------------------|

And i'm ready... to give in tonight yeah i know you think so oo oa
First "fake"
 
 e|-----------------------------|
 B|-----------------------------|
 G|-----------------------------|
 D|-6-6---------------6-6-----7-|
 A|-4-4-0--0-0-0------4-4-0-0-5-|
 D|-----0--0-0-0----------0-0---|

=============================================================================

Important: The song above is NOT stored on the Chordie server. The original song is hosted at www.guitartabs.cc. Chordie works as a search engine and provides on-the-fly formatting. Chordie does not index songs against artists'/composers' will. To remove this song please click here.

Text color:
Chord color:
Chord grids: 
Font size:    
Page size: 

A5 C#5 E5 F F5
Rate #2 of 4 versions

Jango Player

Login - add to songbook

SHARE PAGE  



You need to log in to post comments