Guitar Tabs, Chords and Lyrics
Server problems seems to be fixed. Chordie has been experiencing problems with songs disappearing. These issues now seems to be fixed, but still verifying the fix. If you find anything strange, please email admin@chordie.com.


The Gap   Birds of Tokyo

 
 -------------------------------------------------------------------------------

 


 THE GAP ? Birds of Tokyo


 

 
 -------------------------------------------------------------------------------

 


 Tabbed by: MKParker53


 Email: M.K.Parker53@gmail.com


 


 Great song off the new self-titled album. This is quite rough, I?m sure it?s not 100%


 glad to receive comments for improvements. Thanks :)


 


 To use lyrics as a guide, the note where the lyrics start has an arrow(^) pointing to


 first word of the line. The rest of the line does not follow in time.


 


 Tuning: Drop D


 


 (Main Riff - Verse)


 I?ve been at the bottom I?ve been living in hell...


 

 
 e|------------[-----------------^-----------------------------------------------|
 B|------------[-----------------|-----------------------------------------------|
 G|-5-55-55-55-[-55-55-55-55-55-55-55-55-55-55-55-55-55-55-55-55-55-55-55--------|
 D|-5-55-55-55-[-55-55-55-55-55-55-55-55-55-55-55-55-55-55-55-55-55-55-55-33-5-6-|
 A|-3-33-33-33-[-33-33-33-33-33-33-33-33-33-33-33-33-33-33-33-33-33-33-33-33-5-6-|
 D|---------33-[----------33----------33----------33----------33----------33-5-6-|

 


 


 || (Pre-Chorus)


 Maybe with the lights out we can be bad, It started when your eyes rolled back in


 head


 

 
 e|-^----------]-[Repeat Bracket Once]---------^---------------------------------|
 B|-|----------]---------------------------/-------------------------------------|
 G|-|----------]----5-55-55------------/-----------------------------------------|
 D|-66-66-66-8-]----5-55-55-33-5-6666666666666666-8888888888888888---------------|
 A|-66-66-66-8-]----3-33-33-33-5-6666666666666666-8888888888888888---------------|
 D|-66-66-66-8-]------------33-5-6666666666666666-8888888888888888---------------|

 


 


 (Chorus) ? In later choruses, most chords here represent several strums


 See I, can fool them all, with you there?s no way, I?ve got nothing at all


 

 
 e|-^----------------------------------------------------------------------------|
 B|-|----------------------------------------------------------------------------|
 G|-5-------------13-13-13-13----------------------------------------------------|
 D|-5-6-8-13-13---13-13-13-13--33-11---------------------------------------------|
 A|-3-6-8-13-13---11-11-10-10--33-11---------------------------------------------|
 D|---6-8-13-13---------10-10--33-11---------------------------------------------|

 


 


 [Verse] (Without Repeat)


 


 [Cborus] x2


 


 (Bridge/Outro) || (Heavy man-choir, no guitar)


 


 So let me go, free yourself, the world you know is somewhere else


 

 
 e|------------^--------------------------------------------------------------------|
 B|------------|--------------------------------------------------------------------|
 G|------------|--------------------------------------------------------------------|
 D|------------3-5-6-8-3-5-6-8-3-5-6-8-3-8-6-8--------------------------------------|
 A|------------3-5-6-8-3-5-6-8-3-5-6-8-3-8-6-8--------------------------------------|
 D|------------3-5-6-8-3-5-6-8-3-5-6-8-3-8-6-8--------------------------------------|


Important: The song above is NOT stored on the Chordie server. The original song is hosted at www.guitartabs.cc. Chordie works as a search engine and provides on-the-fly formatting. Chordie does not index songs against artists'/composers' will. To remove this song please click here.

This song is displayed as text-only. Transposing and tuning is only available for chordpro-songs.
Rate #2 of 3 versions

Jango Player

Login - add to songbook

SHARE PAGE  




You need to log in to post comments