Guitar Tabs, Chords and Lyrics
Server problems seems to be fixed. Chordie has been experiencing problems with songs disappearing. These issues now seems to be fixed, but still verifying the fix. If you find anything strange, please email admin@chordie.com.


Deathmask Divine  The Black Dahlia Murder

The Black Dahlia Murder
Nocturnal
[G#5]x 3 5 x x x
[F5]x 0 2 x x x
[C5]0 2 x x x x
G#5(type 2)
x 3 5 5 x x
[C5/G]x 2 2 4 x x
[D5]2 4 4 x x x
[G5/D]2 2 4 x x x
C5(type 2)
0 2 2 x x x
[Bb5]10 12 12 x x x
[B5]x 2 4 4 x x
Gtr I (C F Bb Eb G C) - 'Rhythm Guitar I'
Gtr II (C F Bb Eb G C) - 'Rhythm Guitar II'
Gtr III (C F Bb Eb G C) - 'Lead Guitar'
Gtr IV (C F Bb Eb G C) - 'Rhythm Guitar III'
Gtr V (C F Bb Eb G C) - 'Studio Strings'
Intro
Q=241
[F5] [Fm] [G#] 
[4/4] Gtr I
 
 PM------| PM------------| PM----|

S S E E E Q S S S S S S E Q S S S S Q
 
 |----------------------|---------------------|
 |----------------------|---------------------|
 |-----------2----------|---------------------|
 |-----------2----------|------------------2--|
 |-2-2-2-2-2-0----------|-------3----------3--|
 |-0-0-0-0-0----2-2-2-2-|-2-2-2S5--2-2-2-2----|

|
| Gtr II
 
 | PM------| PM------------| PM----|

| S S E E E Q S S S S S S E Q S S S S Q
 
 |----------------------|---------------------|
 |----------------------|---------------------|
 |-----------2----------|---------------------|
 |-----------2----------|------------------2--|
 |-2-2-2-2-2-0----------|-------3----------3--|
 |-0-0-0-0-0----2-2-2-2-|-2-2-2S5--2-2-2-2----|

[F5] [Fm]  
 
 PM------| PM------------| PM----|

S S E E E Q S S S S S S E Q S S S S S S S S
 
 |----------------------|----------------------------||
 |----------------------|----------------------------||
 |-----------2----------|----------------------------||
 |-----------2----------|------------------1-1-1-1---||
 |-2-2-2-2-2-0----------|-------3--------------------||
 |-0-0-0-0-0----2-2-2-2-|-2-2-2S5--2-2-2-2-----------||

|
 
 | PM------| PM------------| PM----|

| S S E E E Q S S S S S S E Q S S S S S S S S
 
 |----------------------|----------------------------||
 |----------------------|----------------------------||
 |-----------2----------|----------------------------||
 |-----------2----------|------------------4-4-4-4---||
 |-2-2-2-2-2-0----------|-------3--------------------||
 |-0-0-0-0-0----2-2-2-2-|-2-2-2S5--2-2-2-2-----------||

Verse
N.C.
Gtrs I, II
PM| PM PM PM PM PM-
[E] [E] [E] [E] [E] [E] [E] [E] [E] [E] [E] [E] [E] [E] [E] [E]  
 
 ||-------------------|-------------------|
 ||o------------------|-------------------|
 ||-------------------|-------------------|
 ||----------7--------|-------------------|
 ||o-----7-------10p0-|-----10---9---10---|
 ||--0-0---0---0------|-0-0----0---0----8-|
 ---| PM PM PM----| PM PM PM

[E] [E] [E] [E] [E] [E] [E] [E] [E] [E] [E] [E] [E] [E] [E] [E]  
 
 |-------------------|-------------------|
 |-------------------|-------------------|
 |-------------------|-------------------|
 |-----10---10---9---|-----10---10---9---|
 |-------------------|-------------------|
 |-8-8----8----8---8-|-8-8----8----8---8-|

1.
Gtr I
PM| PM PM PM----| PM PM PM-
[E] [E] [E] [E] [E] [E] [E] [E] [E] [E] [E] [E] [E] [E] [E] [E]  
 
 |-----------------|-----------------|
 |-----------------|-----------------|
 |-----------------|-----------------|
 |-----7---7---9---|-----7---7---5---|
 |-----------------|-----------------|
 |-5-5---5---5---0-|-5-5---5---5---0-|

|
| Gtr II
| PM| PM PM PM----| PM PM
| E E E E E E E E E E E E E E E E
 
 |-----------------|-----------------|
 |-----------------|-----------------|
 |-----------------|-----------------|
 |-----7-------9---|-----7---7-------|
 |---------9-------|-------------7p5-|
 |-5-5---5---5---0-|-5-5---5---5-----|

---| PM PM PM [Fm6/D] PM PM PM ~
E E E E E E E E E E E E E E S S E
 
 |-----------------|----------------------------------||
 |-----------------|---------------------------------o||
 |-----------------|----------------------------------||
 |-----5---5---4---|-1-----------------------4h5p4----||
 |-----------------|---------3-------2---------------o||
 |-2-2---2---2---2-|-----2-------2-------2------------||

|
| PM| PM PM PM
| E E E E E E E E S S S S S S S S S S S S S S S S
 
 |-----------------|----------------------------------||
 |-----------------|---------------------------------o||
 |-----------------|-------------------------2-2-2-2--||
 |-----5---5---4---|-----------------4-4-4-4----------||
 |-----------------|---------3-3-3-3-----------------o||
 |-2-2---2---2---2-|-2-2-2-2--------------------------||

2.
N.C.
Gtr I
 
 PM| PM PM PM----| PM PM PM----| PM PM PM----| PM PM PM

[E] [E] [E] [E] [E] [E] [E] [E] [E] [E] [E] [E] [E] [E] [E] [E] [E] [E] [E] [E] [E] [E] [E] [E] [E] [E] [E] [E] [E] [E] [E] [E]  
 
 |-----------------|-----------------|-----------------|------------------||
 |-----------------|-----------------|-----------------|------------------||
 |-----------------|-----------------|-----------------|------------------||
 |-----7---7---9---|-----7---7---5---|-----2---2---1---|-----1---1--------||
 |-----------------|-----------------|-----------------|-------------2----||
 |-5-5---5---5---0-|-5-5---5---5---0-|-2-2---2---2---2-|-2-2---2---2---2--||

|
| Gtr II
 
 | PM| PM PM PM----| PM PM PM| PM PM PM----| PM PM PM

| E E E E E E E E E E E E E E E E E E E E E E E E E E E E E E E E
 
 |-----------------|-----------------|-----------------|------------------||
 |-----------------|-----------------|-----------------|------------------||
 |-----------------|-----------------|-----------------|------------------||
 |-----7-------9---|-----7---7-------|-------------4---|-----4---4---1----||
 |---------9-------|-------------7p5-|-----3---3-------|------------------||
 |-5-5---5---5---0-|-5-5---5---5-----|-2-2---2---2---2-|-2-2---2---2---2--||

Bridge
1.
N.C.
Gtr I
TP TP TP TP TP TP TP TP TP TP TP TP TP TP TP TP
Q Q Q Q Q Q Q Q Q Q Q Q Q Q Q Q
 
 ||-----------------|----------------|--------------|----------------||
 ||o----------------|----------------|--------------|---------------o||
 ||-----------------|----------------|--------------|----------------||
 ||-----------------|----------------|--------------|----------------||
 ||o--7------7---9--|-10-----10---9--|-5-----5---7--|--9------9--7--o||
 ||------0----------|-----0----------|----0---------|-----0----------||

|
| Gtr II
| TP TP TP TP TP TP TP TP TP TP TP TP TP TP TP TP
| Q Q Q Q Q Q Q Q Q Q Q Q Q Q Q Q
 
 ||-----------------|----------------|--------------|----------------||
 ||o----------------|----------------|--------------|---------------o||
 ||-----------------|----------------|--------------|----------------||
 ||-----------------|--9------9------|--------------|------------9---||
 ||o-10-----10--12--|------------12--|-9-----9--10--|-12-----12-----o||
 ||------0----------|-----0----------|----0---------|-----0----------||

2.
TP TP TP TP TP TP TP TP TP TP TP TP TP TP TP TP
Q Q Q Q Q Q Q Q Q Q Q Q Q Q Q Q
 
 |--------------|-------------|----------------|-------------|
 |--------------|-------------|----------------|-------------|
 |--------------|-------------|----------------|-------------|
 |--------------|-------------|----------------|-------------|
 |-------5---7--|----------5--|--7------7--10--|-9-----9--10-|
 |-8--0---------|-8--0--8-----|-----0----------|----0--------|

|
| TP TP TP TP TP TP TP TP TP TP TP TP TP TP TP TP
| Q Q Q Q Q Q Q Q Q Q Q Q Q Q Q Q
 
 |--------------|-------------|----------------|-------------|
 |--------------|-------------|----------------|-------------|
 |--------------|-------------|----------------|-------------|
 |--------------|-------------|-------------9--|-----------9-|
 |-7-----9--10--|-7-----7--9--|-10-----10------|-5-----5-----|
 |----0---------|----0--------|-----0----------|----0--------|

Gtr I[E5]
TP TP TP TP
Q Q Q Q H H H H
 
 |----------------|-------------|--------------|
 |----------------|-------------|--------------|
 |----------------|-17----16----|-12-----14----|
 |----------------|--x-----x----|--x------x----|
 |-12-----12--10--|-15----14----|-10-----12----|
 |-----0----------|-------------|--------------|

|
| Gtr II
| TP TP TP TP
| Q Q Q Q H H H H
 
 |----------------|-------------|--------------|
 |----------------|-------------|--------------|
 |----------------|-14----12----|--9-----11----|
 |-10-----10---9--|--x-----x----|--x------x----|
 |----------------|-12----10----|--7------9----|
 |-----0----------|-------------|--------------|

|
| Gtr IV
| W W +W
 
 |----------------|-------------|--------------|
 |----------------|-------------|--------------|
 |----------------|-------------|--------------|
 |----------------|--2----------|-(2)----------|
 |----------------|--2----------|-(2)----------|
 |----------------|--0----------|-(0)----------|

[E5] PM PM PM PM PM PM PM PM
[E] [E] [E] [E] [E] [E] [E] [E] [E] [E] [E] [E] [E] [E] [E] [E]  
 
 |-------------------------------------|------------------------------------||
 |-------------------------------------|------------------------------------||
 |-------------------------------------|------------------------------------||
 |-------------------------------------|------------------------------------||
 |--7------------7----7------------7---|-6-----------6---6-----------6------||
 |--------0--------0--------0--------0-|-------5-------5-------5-------5----||

|
| PM PM PM PM PM PM PM PM
| E E E E E E E E E E E E E E E E
 
 |-------------------------------------|------------------------------------||
 |-------------------------------------|------------------------------------||
 |-------------------------------------|------------------------------------||
 |-------------------------------------|------------------------------------||
 |-10-----------10---10-----------10---|-9-----------9---9-----------9------||
 |--------0--------0--------0--------0-|-------8-------8-------8-------8----||

|
 
 | PM---------------------------------------------------------------|
 | |-3-| |-3-| |-3-| |-3-| |-3-| |-3-| |-3-| |-3-|

| S S S S S S Q S S S S S S Q S S S S S S Q S S S S S S Q
 
 |-------------------------------------|------------------------------------||
 |-------------------------------------|------------------------------------||
 |-------------------------------------|------------------------------------||
 |-------------------------------------|------------------------------------||
 |--2-2-2-2-2-2-------2-2-2-2-2-2------|-2-2-2-2-2-2-----2-2-2-2-2-2--------||
 |--0-0-0-0-0-0-------0-0-0-0-0-0------|-0-0-0-0-0-0-----0-0-0-0-0-0--------||

Pre-Chorus
C5 N.C.
Gtr I
 
 PM-------| PM-------| PM-------| TP TP TP TP

E Q Q Q E E Q Q Q E E Q Q Q E Q Q Q Q
 
 ||---------------|--------------|--------------|-------------|
 ||o--------------|--------------|--------------|-------------|
 ||--4------------|-4------------|-4------------|-------------|
 ||--2------------|-2------------|-2------------|-------------|
 ||o---2--2--2--2-|---2--2--2--2-|---2--2--2--2-|-------------|
 ||----0--0--0--0-|---0--0--0--0-|---0--0--0--0-|-5--4--5--4--|

|
| Gtr II
 
 | PM-------| PM-------| PM-------| TP TP TP TP

| E Q Q Q E E Q Q Q E E Q Q Q E Q Q Q Q
 
 ||---------------|--------------|--------------|-------------|
 ||o--------------|--------------|--------------|-------------|
 ||--4------------|-4------------|-4------------|-------------|
 ||--2------------|-2------------|-2------------|-------------|
 ||o---2--2--2--2-|---2--2--2--2-|---2--2--2--2-|-------------|
 ||----0--0--0--0-|---0--0--0--0-|---0--0--0--0-|-8--7--8--7--|

[C5]Gtr I
 
 PM-------| PM-------| PM-------|

E Q Q Q E E Q Q Q E E Q Q Q E
 
 |--------------|--------------|--------------|
 |--------------|--------------|--------------|
 |-4------------|-4------------|-4------------|
 |-2------------|-2------------|-2------------|
 |---2--2--2--2-|---2--2--2--2-|---2--2--2--2-|
 |---0--0--0--0-|---0--0--0--0-|---0--0--0--0-|

|
| Gtr II
 
 | PM-------| PM-------| PM-------|

| E Q Q Q E E Q Q Q E E Q Q Q E
 
 |--------------|--------------|--------------|
 |--------------|--------------|--------------|
 |-4------------|-4------------|-4------------|
 |-2------------|-2------------|-2------------|
 |---2--2--2--2-|---2--2--2--2-|---2--2--2--2-|
 |---0--0--0--0-|---0--0--0--0-|---0--0--0--0-|

1. 2.
N.C.
TP TP TP TP
Q Q Q Q S S E E E E E E E
 
 |--------------||-------------------------||
 |-------------o||-------------------------||
 |--------------||-------------------------||
 |--------------||-9h10p9-7h9-7------[10]--||
 |----------6--o||--------------10p9-------||
 |-5--4--5------||-------------------------||

|
| TP TP TP TP
| Q Q Q Q S S E E E E E E E
 
 |--------------||-------------------------||
 |-------------o||-------------------------||
 |--------------||-------------------------||
 |--------------||-5h=7p5---5----------7---||
 |----------9--o||--------9---9p=7-6-------||
 |-8--7--8------||-------------------------||

Verse
N.C.
Gtrs I, II
PM| PM PM PM PM PM-
[E] [E] [E] [E] [E] [E] [E] [E] [E] [E] [E] [E] [E] [E] [E] [E]  
 
 ||-------------------|-------------------|
 ||o------------------|-------------------|
 ||-------------------|-------------------|
 ||----------7--------|-------------------|
 ||o-----7-------10p0-|-----10---9---10---|
 ||--0-0---0---0------|-0-0----0---0----8-|
 ---| PM PM PM----| PM PM PM

[E] [E] [E] [E] [E] [E] [E] [E] [E] [E] [E] [E] [E] [E] [E] [E]  
 
 |-------------------|-------------------|
 |-------------------|-------------------|
 |-------------------|-------------------|
 |-----10---10---9---|-----10---10---9---|
 |-------------------|-------------------|
 |-8-8----8----8---8-|-8-8----8----8---8-|

1.
Gtr I
PM| PM PM PM----| PM PM PM-
[E] [E] [E] [E] [E] [E] [E] [E] [E] [E] [E] [E] [E] [E] [E] [E]  
 
 |-----------------|-----------------|
 |-----------------|-----------------|
 |-----------------|-----------------|
 |-----7---7---9---|-----7---7---5---|
 |-----------------|-----------------|
 |-5-5---5---5---0-|-5-5---5---5---0-|

|
| Gtr II
| PM| PM PM PM----| PM PM
| E E E E E E E E E E E E E E E E
 
 |-----------------|-----------------|
 |-----------------|-----------------|
 |-----------------|-----------------|
 |-----7-------9---|-----7---7-------|
 |---------9-------|-------------7p5-|
 |-5-5---5---5---0-|-5-5---5---5-----|

---| PM PM PM [Fm6/D] PM PM PM ~
E E E E E E E E E E E E E E S S E
 
 |-----------------|----------------------------------||
 |-----------------|---------------------------------o||
 |-----------------|----------------------------------||
 |-----5---5---4---|-1-----------------------4h5p4----||
 |-----------------|---------3-------2---------------o||
 |-2-2---2---2---2-|-----2-------2-------2------------||

|
| PM| PM PM PM
| E E E E E E E E S S S S S S S S S S S S S S S S
 
 |-----------------|----------------------------------||
 |-----------------|---------------------------------o||
 |-----------------|-------------------------2-2-2-2--||
 |-----5---5---4---|-----------------4-4-4-4----------||
 |-----------------|---------3-3-3-3-----------------o||
 |-2-2---2---2---2-|-2-2-2-2--------------------------||

2.
N.C.
Gtr I
 
 PM| PM PM PM----| PM PM PM----| PM PM PM----| PM PM PM

[E] [E] [E] [E] [E] [E] [E] [E] [E] [E] [E] [E] [E] [E] [E] [E] [E] [E] [E] [E] [E] [E] [E] [E] [E] [E] [E] [E] [E] [E] [E] [E]  
 
 |-----------------|-----------------|-----------------|------------------||
 |-----------------|-----------------|-----------------|------------------||
 |-----------------|-----------------|-----------------|------------------||
 |-----7---7---9---|-----7---7---5---|-----2---2---1---|-----1---1--------||
 |-----------------|-----------------|-----------------|-------------2----||
 |-5-5---5---5---0-|-5-5---5---5---0-|-2-2---2---2---2-|-2-2---2---2---2--||

|
| Gtr II
 
 | PM| PM PM PM----| PM PM PM| PM PM PM----| PM PM PM

| E E E E E E E E E E E E E E E E E E E E E E E E E E E E E E E E
 
 |-----------------|-----------------|-----------------|------------------||
 |-----------------|-----------------|-----------------|------------------||
 |-----------------|-----------------|-----------------|------------------||
 |-----7-------9---|-----7---7-------|-------------4---|-----4---4---1----||
 |---------9-------|-------------7p5-|-----3---3-------|------------------||
 |-5-5---5---5---0-|-5-5---5---5-----|-2-2---2---2---2-|-2-2---2---2---2--||

Pre-Chorus
C5 N.C.
Gtr I
 
 PM-------| PM-------| PM-------| TP TP TP TP

E Q Q Q E E Q Q Q E E Q Q Q E Q Q Q Q
 
 |--------------|--------------|--------------|--------------|
 |--------------|--------------|--------------|--------------|
 |-4------------|-4------------|-4------------|--------------|
 |-2------------|-2------------|-2------------|--------------|
 |---2--2--2--2-|---2--2--2--2-|---2--2--2----|---------7----|
 |---0--0--0--0-|---0--0--0--0-|---0--0--0--0-|--7--5------5-|

|
| Gtr II
 
 | PM-------| PM-------| PM-------| TP TP TP TP

| E Q Q Q E E Q Q Q E E Q Q Q E Q Q Q Q
 
 |--------------|--------------|--------------|--------------|
 |--------------|--------------|--------------|--------------|
 |-4------------|-4------------|-4------------|--------------|
 |-2------------|-2------------|-2------------|--------------|
 |---2--2--2--2-|---2--2--2--2-|---2--2--2----|--------10----|
 |---0--0--0--0-|---0--0--0--0-|---0--0--0--0-|-10--8------8-|
 PM-------| PM-------| TP TP TP TP TP TP TP TP

E Q Q Q E E Q Q Q E Q Q Q Q Q Q Q Q
 
 |--------------|--------------|---------------|------------||
 |--------------|--------------|---------------|------------||
 |-4------------|-4------------|---------------|------------||
 |-2------------|-2------------|---------------|------------||
 |---2--2--2--2-|---2--2--2----|---------7-----|-------9----||
 |---0--0--0--0-|---0--0--0--0-|--7--5------5--|-8--7-----7-||

|
 
 | PM-------| PM-------| TP TP TP TP TP TP TP TP

| E Q Q Q E E Q Q Q E Q Q Q Q Q Q Q Q
 
 |--------------|--------------|---------------|------------||
 |--------------|--------------|---------------|------------||
 |-4------------|-4------------|---------------|------------||
 |-2------------|-2------------|---------------|------------||
 |---2--2--2--2-|---2--2--2----|--------10-----|-------5----||
 |---0--0--0--0-|---0--0--0--0-|-10--8------8--|-5--3-----3-||

Chorus
[G#5]Gtr IV
 
 |-3-| |-3-| |-3-| |-3-| |-3-| |-3-| |-3-| |-3-|

S S S S S S S S S S S S S S S S S S S S S S S S
| | | | | | | | | | | | | | | | | | | | | | | |
[/] [/] [/] [/] [/] [/] [/] [/] [/] [/] [/] [/] [/] [/] [/] [/] [/] [/] [/] [/] [/] [/] [/] [/] 
Gtr I
 
 |---3---| |---3---| |---3---| |---3---|

[E] [E] [E] [E] [E] [E] [E] [E] [E] [E] [E] [E]  
 
 ||--------------------------------------------------|
 ||o-------------------------------------------------|
 ||--------------------------------------------------|
 ||--------------------------------------------------|
 ||o-7---7---7---7---7---7---7---7---7---7---7---7---|
 ||--------------------------------------------------|

|
| Gtr II
 
 | |---3---| |---3---| |---3---| |---3---|

| E E E E E E E E E E E E
 
 ||--------------------------------------------------|
 ||o-------------------------------------------------|
 ||--------------------------------------------------|
 ||--------------------------------------------------|
 ||o-7---7---7---7---7---7---7---7---7---7---7---7---|
 ||--------------------------------------------------|

|
| Gtr V
| W
 
 ||--------------------------------------------------|
 ||o-------------------------------------------------|
 ||--9-----------------------------------------------|
 ||--------------------------------------------------|
 ||o-7-----------------------------------------------|
 ||--------------------------------------------------|
 |-3--| |-3--| |-3--| |-3--| |-3-| |-3-| |-3-| |-3-|

S S S S S S S S S S S S S S S S S S S S S S S S
| | | | | | | | | | | | | | | | | | | | | | | |
[/] [/] [/] [/] [/] [/] [/] [/] [/] [/] [/] [/] [/] [/] [/] [/] [/] [/] [/] [/] [/] [/] [/] [/] 
 
 |----3----| |----3----| |---3---| |---3---|

[E] [E] [E] [E] [E] [E] [E] [E] [E] [E] [E] [E]  
 
 |-----------------------------------------------------------|
 |-----------------------------------------------------------|
 |-----------------------------------------------------------|
 |--9----9----9----9----9----9-------------------------------|
 |--------------------------------5---5---5---5---5---5------|
 |-----------------------------------------------------------|

|
 
 | |----3----| |----3----| |---3---| |---3---|

| E E E E E E E E E E E E
 
 |-----------------------------------------------------------|
 |-----------------------------------------------------------|
 |-----------------------------------------------------------|
 |-----------------------------------------------------------|
 |-10---10---10---10---10---10----9---9---9---9---9---9------|
 |-----------------------------------------------------------|

|
| H H
 
 |-----------------------------------------------------------|
 |-----------------------------------------------------------|
 |-12----------------------------11--------------------------|
 |-----------------------------------------------------------|
 |-10-----------------------------9--------------------------|
 |-----------------------------------------------------------|

[F5]  
 
 |-3-| |-3-| |-3-| |-3-| |-3-| |-3-| |-3-| |-3-|

S S S S S S S S S S S S S S S S S S S S S S S S
| | | | | | | | | | | | | | | | | | | | | | | |
[/] [/] [/] [/] [/] [/] [/] [/] [/] [/] [/] [/] [/] [/] [/] [/] [/] [/] [/] [/] [/] [/] [/] [/] 
 
 |---3---| |---3---| |---3---| |---3---|

[E] [E] [E] [E] [E] [E] [E] [E] [E] [E] [E] [E]  
 
 |-------------------------------------------------|
 |-------------------------------------------------|
 |-------------------------------------------------|
 |-------------------------------------------------|
 |-5---5---5---5---5---5---7---7---7---7---7---7---|
 |-------------------------------------------------|

|
 
 | |---3---| |---3---| |---3---| |---3---|

| E E E E E E E E E E E E
 
 |-------------------------------------------------|
 |-------------------------------------------------|
 |-------------------------------------------------|
 |-------------------------------------------------|
 |-9---9---9---9---9---9---7---7---7---7---7---7---|
 |-------------------------------------------------|

|
| W
 
 |-------------------------------------------------|
 |-------------------------------------------------|
 |-9-----------------------------------------------|
 |-------------------------------------------------|
 |-7-----------------------------------------------|
 |-------------------------------------------------|
 |-3-| |-3-| |-3-| |-3-| |-3-| |-3-| |-3-| |-3-|

S S S S S S S S S S S S S S S S S S S S S S S S
| | | | | | | | | | | | | | | | | | | | | | | |
[/] [/] [/] [/] [/] [/] [/] [/] [/] [/] [/] [/] [/] [/] [/] [/] [/] [/] [/] [/] [/] [/] [/] [/] 
 
 |---3---| |---3---| |---3---| |---3---|

[E] [E] [E] [E] [E] [E] [E] [E] [E] [E] [E] [E]  
 
 |-------------------------------------------------|
 |-------------------------------------------------|
 |-------------------------------------------------|
 |-------------------------------------------------|
 |-5---5---5---5---5---5---7---7---7---7---7---7---|
 |-------------------------------------------------|

|
 
 | |---3---| |---3---| |---3---| |---3---|

| E E E E E E E E E E E E
 
 |-------------------------------------------------|
 |-------------------------------------------------|
 |-------------------------------------------------|
 |-------------------------------------------------|
 |-5---5---5---5---5---5---7---7---7---7---7---7---|
 |-------------------------------------------------|

|
| H H
 
 |-------------------------------------------------|
 |-------------------------------------------------|
 |-7-----------------------9-----------------------|
 |-------------------------------------------------|
 |-5-----------------------7-----------------------|
 |-------------------------------------------------|

[C5]  
 
 |-3-| |-3-| |-3-| |-3-| |-3-| |-3-| |-3-| |-3-|

S S S S S S S S S S S S S S S S S S S S S S S S
| | | | | | | | | | | | | | | | | | | | | | | |
[/] [/] [/] [/] [/] [/] [/] [/] [/] [/] [/] [/] [/] [/] [/] [/] [/] [/] [/] [/] [/] [/] [/] [/] 
 
 |---3---| |---3---| |---3---| |---3---|

[E] [E] [E] [E] [E] [E] [E] [E] [E] [E] [E] [E]  
 
 |-------------------------------------------------|
 |-------------------------------------------------|
 |-------------------------------------------------|
 |-------------------------------------------------|
 |-7---7---7---7---7---7---7---7---7---7---7---7---|
 |-------------------------------------------------|

|
 
 | |---3---| |---3---| |---3---| |---3---|

| E E E E E E E E E E E E
 
 |-------------------------------------------------|
 |-------------------------------------------------|
 |-------------------------------------------------|
 |-------------------------------------------------|
 |-7---7---7---7---7---7---7---7---7---7---7---7---|
 |-------------------------------------------------|

|
| W
 
 |-------------------------------------------------|
 |-------------------------------------------------|
 |-9-----------------------------------------------|
 |-------------------------------------------------|
 |-7-----------------------------------------------|
 |-------------------------------------------------|
 |-3-| |-3-| |-3-| |-3-| |-3-| |-3-| |-3-| |-3-|

S S S S S S S S S S S S S S S S S S S S S S S S
| | | | | | | | | | | | | | | | | | | | | | | |
[/] [/] [/] [/] [/] [/] [/] [/] [/] [/] [/] [/] [/] [/] [/] [/] [/] [/] [/] [/] [/] [/] [/] [/] 
 
 |---3---| |---3---| |---3---| |---3---|

[E] [E] [E] [E] [E] [E] [E] [E] [E] [E] [E] [E]  
 
 |-------------------------------------------------|
 |-------------------------------------------------|
 |-------------------------------------------------|
 |-------------------------------------------------|
 |-5---5---5---5---5---5---7---7---7---7---7---7---|
 |-------------------------------------------------|

|
 
 | |---3---| |---3---| |---3---| |---3---|

| E E E E E E E E E E E E
 
 |-------------------------------------------------|
 |-------------------------------------------------|
 |-------------------------------------------------|
 |-------------------------------------------------|
 |-5---5---5---5---5---5---7---7---7---7---7---7---|
 |-------------------------------------------------|

|
| H H
 
 |-------------------------------------------------|
 |-------------------------------------------------|
 |-7-----------------------9-----------------------|
 |-------------------------------------------------|
 |-5-----------------------7-----------------------|
 |-------------------------------------------------|

[C5]  
 
 |-3-| |-3-| |-3-| |-3-| |-3-| |-3-| |-3-| |-3-|

S S S S S S S S S S S S S S S S S S S S S S S S
| | | | | | | | | | | | | | | | | | | | | | | |
[/] [/] [/] [/] [/] [/] [/] [/] [/] [/] [/] [/] [/] [/] [/] [/] [/] [/] [/] [/] [/] [/] [/] [/] 
 
 |---3---| |---3---| |---3---| |---3---|

[E] [E] [E] [E] [E] [E] [E] [E] [E] [E] [E] [E]  
 
 |-------------------------------------------------|
 |-------------------------------------------------|
 |-------------------------------------------------|
 |-------------------------------------------------|
 |-7---7---7---7---7---7---7---7---7---7---7---7---|
 |-------------------------------------------------|

|
 
 | |---3---| |---3---| |---3---| |---3---|

| E E E E E E E E E E E E
 
 |-------------------------------------------------|
 |-------------------------------------------------|
 |-------------------------------------------------|
 |-------------------------------------------------|
 |-7---7---7---7---7---7---7---7---7---7---7---7---|
 |-------------------------------------------------|

|
| W
 
 |-------------------------------------------------|
 |-------------------------------------------------|
 |-9-----------------------------------------------|
 |-------------------------------------------------|
 |-7-----------------------------------------------|
 |-------------------------------------------------|
 |-3--| |-3--| |-3--| |-3--| |-3-| |-3-| |-3-| |-3-|

S S S S S S S S S S S S S S S S S S S S S S S S
| | | | | | | | | | | | | | | | | | | | | | | |
[/] [/] [/] [/] [/] [/] [/] [/] [/] [/] [/] [/] [/] [/] [/] [/] [/] [/] [/] [/] [/] [/] [/] [/] 
 
 |----3----| |----3----| |---3---| |---3---|

[E] [E] [E] [E] [E] [E] [E] [E] [E] [E] [E] [E]  
 
 |--------------------------------------------------------|
 |--------------------------------------------------------|
 |--------------------------------------------------------|
 |--------------------------------------------------------|
 |--7----7----7----7----7----7----9---9---9---9---9---9---|
 |--------------------------------------------------------|

|
 
 | |----3----| |----3----| |---3---| |---3---|

| E E E E E E E E E E E E
 
 |--------------------------------------------------------|
 |--------------------------------------------------------|
 |--------------------------------------------------------|
 |--------------------------------------------------------|
 |-10---10---10---10---10---10----9---9---9---9---9---9---|
 |--------------------------------------------------------|

|
| H H
 
 |--------------------------------------------------------|
 |--------------------------------------------------------|
 |-12----------------------------11-----------------------|
 |--------------------------------------------------------|
 |-10-----------------------------9-----------------------|
 |--------------------------------------------------------|

[G#5]  
 
 |-3--| |-3--| |-3--| |-3--| |-3--| |-3--| |-3--| |-3--|

S S S S S S S S S S S S S S S S S S S S S S S S
| | | | | | | | | | | | | | | | | | | | | | | |
[/] [/] [/] [/] [/] [/] [/] [/] [/] [/] [/] [/] [/] [/] [/] [/] [/] [/] [/] [/] [/] [/] [/] [/] 
 
 |----3----| |----3----| |----3----| |----3----|

[E] [E] [E] [E] [E] [E] [E] [E] [E] [E] [E] [E]  
 
 |-------------------------------------------------------------|
 |-------------------------------------------------------------|
 |-------------------------------------------------------------|
 |-------------------------------------------------------------|
 |-14---14---14---14---14---14---14---14---14---14---14---14---|
 |-------------------------------------------------------------|

|
 
 | |----3----| |----3----| |----3----| |----3----|

| E E E E E E E E E E E E
 
 |-------------------------------------------------------------|
 |-------------------------------------------------------------|
 |-------------------------------------------------------------|
 |-------------------------------------------------------------|
 |-10---10---10---10---10---10---10---10---10---10---10---10---|
 |-------------------------------------------------------------|

|
| W
 
 |-------------------------------------------------------------|
 |-------------------------------------------------------------|
 |-16----------------------------------------------------------|
 |-------------------------------------------------------------|
 |-14----------------------------------------------------------|
 |-------------------------------------------------------------|
 |-3--| |-3--| |-3--| |-3--| |-3--| |-3--| |-3--| |-3--|

S S S S S S S S S S S S S S S S S S S S S S S S
| | | | | | | | | | | | | | | | | | | | | | | |
[/] [/] [/] [/] [/] [/] [/] [/] [/] [/] [/] [/] [/] [/] [/] [/] [/] [/] [/] [/] [/] [/] [/] [/] 
 
 |----3----| |----3----| |----3----| |----3----|

[E] [E] [E] [E] [E] [E] [E] [E] [E] [E] [E] [E]  
 
 |-------------------------------------------------------------|
 |-------------------------------------------------------------|
 |-------------------------------------------------------------|
 |-------------------------------------------------------------|
 |-12---12---12---12---12---12---14---14---14---14---14---14---|
 |-------------------------------------------------------------|

|
 
 | |----3----| |----3----| |----3----| |----3----|

| E E E E E E E E E E E E
 
 |-------------------------------------------------------------|
 |-------------------------------------------------------------|
 |-------------------------------------------------------------|
 |-------------------------------------------------------------|
 |--0----0----0----0----0----0---10---10---10---10---10---10---|
 |-------------------------------------------------------------|

|
| H H
 
 |-------------------------------------------------------------|
 |-------------------------------------------------------------|
 |-14----------------------------16----------------------------|
 |-------------------------------------------------------------|
 |-12----------------------------14----------------------------|
 |-------------------------------------------------------------|

[F5]  
 
 |-3--| |-3--| |-3--| |-3--| |-3--| |-3--| |-3--| |-3--|

S S S S S S S S S S S S S S S S S S S S S S S S
| | | | | | | | | | | | | | | | | | | | | | | |
[/] [/] [/] [/] [/] [/] [/] [/] [/] [/] [/] [/] [/] [/] [/] [/] [/] [/] [/] [/] [/] [/] [/] [/] 
 
 |----3----| |----3----| |----3----| |----3----|

[E] [E] [E] [E] [E] [E] [E] [E] [E] [E] [E] [E]  
 
 |-------------------------------------------------------------|
 |-------------------------------------------------------------|
 |-------------------------------------------------------------|
 |-------------------------------------------------------------|
 |-12---12---12---12---12---12---10---10---10---10---10---10---|
 |-------------------------------------------------------------|

|
 
 | |----3----| |----3----| |----3----| |----3----|

| E E E E E E E E E E E E
 
 |-------------------------------------------------------------|
 |-------------------------------------------------------------|
 |-------------------------------------------------------------|
 |-------------------------------------------------------------|
 |--9----9----9----9----9----9---10---10---10---10---10---10---|
 |-------------------------------------------------------------|

|
| H H
 
 |-------------------------------------------------------------|
 |-------------------------------------------------------------|
 |-14----------------------------12----------------------------|
 |-------------------------------------------------------------|
 |-12----------------------------10----------------------------|
 |-------------------------------------------------------------|
 |-3-| |-3-| |-3-| |-3-| |-3--| |-3--| |-3--| |-3--|

S S S S S S S S S S S S S S S S S S S S S S S S
| | | | | | | | | | | | | | | | | | | | | | | |
[/] [/] [/] [/] [/] [/] [/] [/] [/] [/] [/] [/] [/] [/] [/] [/] [/] [/] [/] [/] [/] [/] [/] [/] 
 
 |---3---| |---3---| |----3----| |----3----|

[E] [E] [E] [E] [E] [E] [E] [E] [E] [E] [E] [E]  
 
 |--------------------------------------------------------|
 |--------------------------------------------------------|
 |--------------------------------------------------------|
 |--------------------------------------------------------|
 |--9---9---9---9---9---9---10---10---10---10---10---10---|
 |--------------------------------------------------------|

|
 
 | |---3---| |---3---| |----3----| |----3----|

| E E E E E E E E E E E E
 
 |--------------------------------------------------------|
 |--------------------------------------------------------|
 |--------------------------------------------------------|
 |--------------------------------------------------------|
 |--9---9---9---9---9---9----7----7----7----7----7----7---|
 |--------------------------------------------------------|

|
| H H
 
 |--------------------------------------------------------|
 |--------------------------------------------------------|
 |-11------------------------9----------------------------|
 |--------------------------------------------------------|
 |--9------------------------7----------------------------|
 |--------------------------------------------------------|

[C5]  
 
 |-3-| |-3-| |-3-| |-3-| |-3-| |-3-| |-3-| |-3-|

S S S S S S S S S S S S S S S S S S S S S S S S
| | | | | | | | | | | | | | | | | | | | | | | |
[/] [/] [/] [/] [/] [/] [/] [/] [/] [/] [/] [/] [/] [/] [/] [/] [/] [/] [/] [/] [/] [/] [/] [/] 
 
 |---3---| |---3---| |---3---| |---3---|

[E] [E] [E] [E] [E] [E] [E] [E] [E] [E] [E] [E]  
 
 |-------------------------------------------------|
 |-------------------------------------------------|
 |-------------------------------------------------|
 |-------------------------------------------------|
 |-7---7---7---7---7---7---7---7---7---7---7---7---|
 |-------------------------------------------------|

|
 
 | |---3---| |---3---| |---3---| |---3---|

| E E E E E E E E E E E E
 
 |-------------------------------------------------|
 |-------------------------------------------------|
 |-------------------------------------------------|
 |-------------------------------------------------|
 |-7---7---7---7---7---7---7---7---7---7---7---7---|
 |-------------------------------------------------|

|
| W
 
 |-------------------------------------------------|
 |-------------------------------------------------|
 |-9-----------------------------------------------|
 |-------------------------------------------------|
 |-7-----------------------------------------------|
 |-------------------------------------------------|
 |-3-| |-3-| |-3-| |-3-| |-3-| |-3-| |-3-| |-3-|

S S S S S S S S S S S S S S S S S S S S S S S S
| | | | | | | | | | | | | | | | | | | | | | | |
[/] [/] [/] [/] [/] [/] [/] [/] [/] [/] [/] [/] [/] [/] [/] [/] [/] [/] [/] [/] [/] [/] [/] [/] 
 
 |---3---| |---3---| |---3---| |---3---|

[E] [E] [E] [E] [E] [E] [E] [E] [E] [E] [E] [E]  
 
 |-------------------------------------------------|
 |-------------------------------------------------|
 |-------------------------------------------------|
 |-------------------------------------------------|
 |-5---5---5---5---5---5---7---7---7---7---7---7---|
 |-------------------------------------------------|

|
 
 | |---3---| |---3---| |---3---| |---3---|

| E E E E E E E E E E E E
 
 |-------------------------------------------------|
 |-------------------------------------------------|
 |-------------------------------------------------|
 |-------------------------------------------------|
 |-5---5---5---5---5---5---7---7---7---7---7---7---|
 |-------------------------------------------------|

|
| H H
 
 |-------------------------------------------------|
 |-------------------------------------------------|
 |-7-----------------------9-----------------------|
 |-------------------------------------------------|
 |-5-----------------------7-----------------------|
 |-------------------------------------------------|

[C5]  
 
 |-3-| |-3-| |-3-| |-3-| |-3-| |-3-| |-3-| |-3-|

S S S S S S S S S S S S S S S S S S S S S S S S
| | | | | | | | | | | | | | | | | | | | | | | |
[/] [/] [/] [/] [/] [/] [/] [/] [/] [/] [/] [/] [/] [/] [/] [/] [/] [/] [/] [/] [/] [/] [/] [/] 
 
 |---3---| |---3---| |---3---| |---3---|

[E] [E] [E] [E] [E] [E] [E] [E] [E] [E] [E] [E]  
 
 |-------------------------------------------------|
 |-------------------------------------------------|
 |-------------------------------------------------|
 |-------------------------------------------------|
 |-7---7---7---7---7---7---7---7---7---7---7---7---|
 |-------------------------------------------------|

|
 
 | |---3---| |---3---| |---3---| |---3---|

| E E E E E E E E E E E E
 
 |-------------------------------------------------|
 |-------------------------------------------------|
 |-------------------------------------------------|
 |-------------------------------------------------|
 |-7---7---7---7---7---7---7---7---7---7---7---7---|
 |-------------------------------------------------|

|
| W
 
 |-------------------------------------------------|
 |-------------------------------------------------|
 |-9-----------------------------------------------|
 |-------------------------------------------------|
 |-7-----------------------------------------------|
 |-------------------------------------------------|

1.
 
 |-3-| |-3-| |-3-| |-3-| |-3-| |-3-| |-3-| |-3-|

S S S S S S S S S S S S S S S S S S S S S S S S
| | | | | | | | | | | | | | | | | | | | | | | |
[/] [/] [/] [/] [/] [/] [/] [/] [/] [/] [/] [/] [/] [/] [/] [/] [/] [/] [/] [/] [/] [/] [/] [/] 
 
 |---3---| |---3---| |---3---| |---3---|

[E] [E] [E] [E] [E] [E] [E] [E] [E] [E] [E] [E]  
 
 |--------------------------------------------------||
 |-------------------------------------------------o||
 |--------------------------------------------------||
 |--------------------------------------------------||
 |-5---5---5---5---5---5---7---7---7---7---7---7---o||
 |--------------------------------------------------||

|
 
 | |---3---| |---3---| |---3---| |---3---|

| E E E E E E E E E E E E
 
 |--------------------------------------------------||
 |-------------------------------------------------o||
 |--------------------------------------------------||
 |--------------------------------------------------||
 |-5---5---5---5---5---5---7---7---7---7---7---7---o||
 |--------------------------------------------------||

|
| H H
 
 |--------------------------------------------------||
 |-------------------------------------------------o||
 |-7-----------------------9------------------------||
 |--------------------------------------------------||
 |-5-----------------------7-----------------------o||
 |--------------------------------------------------||

2.
Gtr I
S S E E E E E E E
 
 |---------------------------||
 |---------------------------||
 |---------------------------||
 |-10h12p10-10s12-9h10-------||
 |---------------------10h12-||
 |---------------------------||

|
| Gtr II
| S S E E E E E E E
 
 |---------------------------||
 |---------------------------||
 |---------------------------||
 |--7h=9p=7--7s=5-5h=7-------||
 |----------------------7p=6-||
 |---------------------------||

Guitar Solo
G#5(type 2) C5/G
Gtr IV
W +H H
| | |
[/] [/] [/]  
Gtr III
~~~~
W +Q Q Q S S S S
 
 |--------------|-------12--14--12h15p14p12-|
 |-15b17--------|-(15)----------------------|
 |--------------|---------------------------|
 |--------------|---------------------------|
 |--------------|---------------------------|
 |--------------|---------------------------|

[D5] W +H [G5/D] H
| | |
[/] [/] [/]  
~~~~~~~~~~~~~~~~ ~~~~
W +Q Q a +H
 
 |-14--------|-(14)--------------------|
 |-----------|-------15--13b15-(13)----|
 |-----------|-------------------------|
 |-----------|-------------------------|
 |-----------|-------------------------|
 |-----------|-------------------------|

C5(type 2)
W +W +W +H.. E
| | | | |
/ / / / x
~~~~
H. +Q +H. a Q Q Q Q Q W a
 
 |-------------------|--------------------|-----------------|------------------|
 |-15b17=======(15)--|-(15)r=====(15)h17--|-19--17--20--17--|-20b23r========x--|
 |-------------------|--------------------|-----------------|------------------|
 |-------------------|--------------------|-----------------|------------------|
 |-------------------|--------------------|-----------------|------------------|
 |-------------------|--------------------|-----------------|------------------|

G#5(type 2) B5
W +H H
| | |
[/] [/] [/]  
~~~~~~~~~~~~~~~~~
|--3--|
a +W +H Q Q Q
 
 |-------------------|-------------------|

Important: The song above is NOT stored on the Chordie server. The original song is hosted at www.guitartabs.cc. Chordie works as a search engine and provides on-the-fly formatting. Chordie does not index songs against artists'/composers' will. To remove this song please click here.

Text color:
Chord color:
Chord grids: 
Font size:    
Page size: 

B5 Bb5 C5 C5/G D5 E E5 F5 Fm Fm6/D G# G#5 G5/D
Rate #3 of 3 versions

Login - add to songbook

SHARE PAGE  




You need to log in to post comments