Guitar Tabs, Chords and Lyrics
Server problems seems to be fixed. Chordie has been experiencing problems with songs disappearing. These issues now seems to be fixed, but still verifying the fix. If you find anything strange, please email admin@chordie.com.


I Will Return  The Black Dahlia Murder

Deflorate
Transcribed by: Seth Shadows
Gtr I (C F Bb Eb)
Q=193
[3/4] Gtr I
E E E E +Q E E E E +Q E E E E E E
 
 |--------------|--------------|-------------|
 |--------------|--------------|-------------|
 |--------------|--------------|-------------|
 |-3-3-3-3-(3)--|-3-----3-(3)--|-3-3-3-3-3-3-|

E E E E E E E E E E Q E E E E Q
 
 |-------------|-----------------|-----------------|
 |-------------|-----------------|-----------------|
 |-------------|-----------------|-----------------|
 |-3-3-3-3-3-3S|=15-15-15-15-15--|-15-----15-15----|

E E E E +Q E E E E +Q E E E E +Q
 
 |--------------|--------------|--------------|
 |--------------|--------------|--------------|
 |--------------|--------------|--------------|
 |-2-2-2-2-(2)--|-2-2-2-2-(2)--|-3-3-3-3-(3)--|

E E E E +Q E E E E E E E E E E E E
 
 |--------------|-------------|-------------|
 |--------------|-------------|-------------|
 |--------------|-------------|-------------|
 |-3-----3-(3)--|-3-3-3-3-3-3-|-3-3-3-3-3-3-|

E E E E Q E E E E Q E E E E +Q
 
 |-----------------|---------------|--------------|
 |-----------------|---------------|--------------|
 |-----------------|---------------|--------------|
 |-15-15-15-15-15--|-15-----15-15--|-2-2-2-2-(2)--|

E E E E +Q E E E E +Q E E E E +Q
 
 |--------------|--------------|--------------|
 |--------------|--------------|--------------|
 |--------------|--------------|--------------|
 |-2-2-2-2-(2)--|-3-3-3-3-(3)--|-3-----3-(3)--|

E E E E E E E E E E E E E E E E Q
 
 |-------------|-------------|-----------------|
 |-------------|-------------|-----------------|
 |-------------|-------------|-----------------|
 |-3-3-3-3-3-3-|-3-3-3-3-3-3-|-15-15-15-15-15--|

E E E E Q E E E E +Q E E E E +Q
 
 |---------------|--------------|--------------|
 |---------------|--------------|--------------|
 |---------------|--------------|--------------|
 |-15-----15-15--|-2-2-2-2-(2)--|-2-2-2-2-(2)--|

E E E E +Q E E E E +Q E E E E E E
 
 |--------------|--------------|-------------|
 |--------------|--------------|-------------|
 |--------------|--------------|-------------|
 |-3-3-3-3-(3)--|-3-----3-(3)--|-3-3-3-3-3-3-|

E E E E E E E E E E Q E E E E Q
 
 |-------------|-----------------|---------------|
 |-------------|-----------------|---------------|
 |-------------|-----------------|---------------|
 |-3-3-3-3-3-3-|-15-15-15-15-15--|-15-----15-15--|

E E E E +Q E E E E +Q [4/4] W [4/4] +W +W [6/4] +W.
 
 |--------------|--------------|--------|------------|------------|--------|
 |--------------|--------------|--------|------------|------------|--------|
 |--------------|--------------|--------|------------|------------|--------|
 |-2-2-2-2-(2)--|-2-2-2-2-(2)--|-3------|-(3)--------|-(3)--------|-(3)----|

Q=220
[4/4] Q Q H W W +W
 
 |------------|----------|----------|--------|
 |------------|----------|----------|--------|
 |------------|----------|-0--------|-(0)----|
 |-3----------|----------|----------|--------|

W +W E E E E E E E E E E E E E E E E
 
 |----------|------------|-----------------|-----------------|
 |----------|------------|-----5-5-5-5-5-5-|-----------------|
 |----------|------------|-1-1-------------|-----------------|
 |-3--------|-(3)--------|-----------------|-6-6-3-3-2-2-5-5-|

[E] [E] [E] [E] [E] [E] [E] [E] [E] [E] [E] [E] [E] [E] [E] [E] [E] [E] [E] [E] [E] [E] [E] [E] [E] [E] [E] [E] [E] [E] [E] [E]  
 
 |-----------------|-----------------|-----------------|-----------------|
 |-1-1-5-5-5-5-5-5-|-----------------|-----5-5-5-5-5-5-|-----5-5-----5-5-|
 |-----------------|-6-6-----6-6-----|-1-1-------------|-1-1-----1-1-----|
 |-----------------|-----3-3-----3-3-|-----------------|-----------------|

Q=215
E E +E E Q E E E E +E E Q E E E E +E E Q E E E E +E E Q Q
 
 |------------------|------------------|------------------|-----------------|
 |------------------|------------------|------------------|-----------------|
 |-1-1-(1)-1-1--1-1-|-1-1-(1)-1-1--1-1-|------------------|-----------------|
 |------------------|------------------|-2-2-(2)-2-2--2-2-|-2-2-(2)-2-2-----|

E E Q S S E S S E S S E E E E E E E E E Q E E E E E E E E E E E E
 
 |--------------------|-------------------|----------------|------------------|
 |--------------------|-------------0-----|-1-0-1--1-1-1-1-|-0-0-0-0-0-0-0-0--|
 |--------------------|-------0-------3---|----------------|------------------|
 |-3-2-3--3-3-3-3-3-3-|-3-3-3---3-2-----2-|----------------|------------------|

E E Q S S E S S E S S E E E E E E E H E E E E H E E E E
 
 |--------------------|-------------------|--------------|---------------|
 |--------------------|-------------0-----|--------------|---------------|
 |--------------------|-------0-------3---|-1----1-1-1-1-|---------------|
 |-3-2-3--3-3-3-3-3-3-|-3-3-3---3-2-----2-|--------------|-2----2-2-2-2--|

E E Q S S E S S E S S E E E E E E E E E Q E E E E E E E E E E E E
 
 |--------------------|-------------------|----------------|------------------|
 |--------------------|-------------0-----|-1-0-1--1-1-1-1-|-0-0-0-0-0-0-0-0--|
 |--------------------|-------0-------3---|----------------|------------------|
 |-3-2-3--3-3-3-3-3-3-|-3-3-3---3-2-----2-|----------------|------------------|

E E Q S S E S S E S S E E E E E E E H E E E E H E E E E
 
 |--------------------|-------------------|--------------|---------------|
 |--------------------|-------------0-----|--------------|---------------|
 |--------------------|-------0-------3---|-1----1-1-1-1-|---------------|
 |-3-2-3--3-3-3-3-3-3-|-3-3-3---3-2-----2-|--------------|-2----2-2-2-2--|

[E] [E] [E] [E] [E] [E] [E] [E] [E] [E] [E] [E] [E] [E] [E] [E] [E] [E] [E] [E] [E] [E] [E] [E] [E] [E] [E] [E] [E] [E] [E] [E]  
 
 |-----------------|-----------------|-----------------|-----------------|
 |-------------5---|-----------------|-------------5---|-----5---------5-|
 |-------5---------|-------3---5-3---|-------5---------|-----------------|
 |-6-3-6---6-3---6-|-5-2-5---2-----2-|-6-3-6---6-3---6-|-6-3---6-3-5-2---|

E E E E E E E E E E E E E E E E E E E E E E E E W
 
 |-----------------|-----------------|-----------------|------|
 |-------------5---|-----------------|---5-------5---5-|------|
 |-------5---------|-------3---5-3---|-------------6---|------|
 |-6-3-6---6-3---6-|-5-2-5---2-----2-|-3---3-6-3-------|------|

Q=216
E E Q S S E S S E S S E E E E E E E E E Q E E E E E E E E E E E E
 
 |--------------------|-------------------|----------------|------------------|
 |--------------------|-------------0-----|-1-0-1--1-1-1-1-|-0-0-0-0-0-0-0-0--|
 |--------------------|-------0-------3---|----------------|------------------|
 |-3-2-3--3-3-3-3-3-3-|-3-3-3---3-2-----2-|----------------|------------------|

E E Q S S E S S E S S E E E E E E E H E E E E H E E E E
 
 |--------------------|-------------------|--------------|---------------|
 |--------------------|-------------0-----|--------------|---------------|
 |--------------------|-------0-------3---|-1----1-1-1-1-|---------------|
 |-3-2-3--3-3-3-3-3-3-|-3-3-3---3-2-----2-|--------------|-2----2-2-2-2--|

E E Q S S E S S E S S E E E E E E E E E Q E E E E E E E E E E E E
 
 |--------------------|-------------------|----------------|------------------|
 |--------------------|-------------0-----|-1-0-1--1-1-1-1-|-0-0-0-0-0-0-0-0--|
 |--------------------|-------0-------3---|----------------|------------------|
 |-3-2-3--3-3-3-3-3-3-|-3-3-3---3-2-----2-|----------------|------------------|

E E Q S S E S S E S S E E E E E E E H E E E E H E E E E
 
 |--------------------|-------------------|--------------|---------------|
 |--------------------|-------------0-----|--------------|---------------|
 |--------------------|-------0-------3---|-1----1-1-1-1-|---------------|
 |-3-2-3--3-3-3-3-3-3-|-3-3-3---3-2-----2-|--------------|-2----2-2-2-2--|

[E] [E] [E] [E] [E] [E] [E] [E] [E] [E] [E] [E] [E] [E] [E] [E] [E] [E] [E] [E] [E] [E] [E] [E] [E] [E] [E] [E] [E] [E] [E] [E]  
 
 |-----------------|-----------------|-----------------|-----------------|
 |-------------5---|-----------------|-------------5---|-----5---------5-|
 |-------5---------|-------3---5-3---|-------5---------|-----------------|
 |-6-3-6---6-3---6-|-5-2-5---2-----2-|-6-3-6---6-3---6-|-6-3---6-3-5-2---|

[E] [E] [E] [E] [E] [E] [E] [E] [E] [E] [E] [E] [E] [E] [E] [E] [E] [E] [E] [E] [E] [E] [E] [E] [E] [E] [E] [E] [E] [E] [E] [E]  
 
 |-----------------|-----------------|-----------------|-----------------|
 |-------------5---|-----------------|-------------5---|-----------------|
 |-------5---------|-------3---5-3---|-------5---------|-----------------|
 |-6-3-6---6-3---6-|-5-2-5---2-----2-|-6-3-6---6-3---6-|-6-6-5-5-3-3-2-2-|

H S S E S S E S S S S S S S S S S S S S S S S
 
 |------------------|----------------------------------|
 |------------------|----------------------------------|
 |------------------|---------1-1-1-1------------------|
 |-3----3-3-3-3-3-3-|-3-3-3-3---------3-3-3-3-2-2-2-2--|

S S S S S S S S S S S S S S S S S S S S S S S S S S S S S S S S
 
 |---------------------------------|---------------------------------|
 |---------0-0-0-0-0-0-0-0-0-0-0-0-|-0-0-0-0-0-0-0-0-0-0-0-0-0-0-0-0-|
 |---------------------------------|---------------------------------|
 |-2-2-2-2-------------------------|---------------------------------|

H S S E S S E S S S S S S S S S S S S S S S S
 
 |------------------|----------------------------------|
 |------------------|----------------------------------|
 |------------------|---------1-1-1-1------------------|
 |-3----3-3-3-3-3-3-|-3-3-3-3---------3-3-3-3-2-2-2-2--|

S S S S S S S S S S S S S S S S S S S S S S S S H
 
 |---------------------------------|----------------------|
 |---------0-0-0-0-----------------|----------------------|
 |-----------------3-3-3-3-3-3-3-3-|-3-3-3-3-3-3-3-3-3----|
 |-2-2-2-2-------------------------|----------------------|

H S S E S S E S S S S S S S S S S S S S S S S
 
 |------------------|----------------------------------|
 |------------------|----------------------------------|
 |------------------|---------1-1-1-1------------------|
 |-3----3-3-3-3-3-3-|-3-3-3-3---------3-3-3-3-2-2-2-2--|

S S S S S S S S S S S S S S S S S S S S S S S S S S S S S S S S
 
 |---------------------------------|---------------------------------|
 |---------0-0-0-0-0-0-0-0-0-0-0-0-|-0-0-0-0-0-0-0-0-0-0-0-0-0-0-0-0-|
 |---------------------------------|---------------------------------|
 |-2-2-2-2-------------------------|---------------------------------|

H S S E S S E S S S S S S S S S S S S S S S S S S S S Q H
 
 |------------------|---------------------------------|-----------------|
 |------------------|---------------------------------|-----------------|
 |------------------|---------1-1-1-1-----------------|---------5--3----|
 |-3----3-3-3-3-3-3-|-3-3-3-3---------3-3-3-3-2-2-2-2-|-2-2-2-2---------|

[B] [B] [E] [E] [E] [E] [E] [E] [E] [E] [E] [E] [E] [E] [E] [E] [E] [E] [E] [E] [E] [E] [E] [E] [E] [E]  
 
 |------------|-----------------|-----------------|-----------------|
 |------------|-----5-5-5-5-5-5-|-----------------|-1-1S5-5-5-5-5-5-|
 |-1----/5----|-1-1-------------|-1-1---------0-0-|-----------------|
 |------------|-----------------|-----3-3-2-2-----|-----------------|

[E] [E] [E] [E] [E] [E] [E] [E] [E] [E] [E] [E] [E] [E] [E] [E] [E] [E] [E] [E] [E] [E] [E] [E] [E] [E] [E] [E] [E] [E] [E] [E]  
 
 |-----------------|-----------------|-----------------|-----------------|
 |-----------------|-----5-5-5-5-5-5-|-----5-5-----5-5-|-----5-5-5-5-5-5-|
 |-6-6-----6-6-----|-1-1-------------|-1-1-----1-1-----|-1-1-------------|
 |-----3-3-----3-3-|-----------------|-----------------|-----------------|

[E] [E] [E] [E] [E] [E] [E] [E] [E] [E] [E] [E] [E] [E] [E] [E] [E] [E] [E] [E] [E] [E] [E] [E] [E] [E] [E] [E] [E] [E] [E] [E]  
 
 |-----------------|-----------------|-----------------|-----------------|
 |-----5-5---------|-----------------|-----------------|-----5-5-5-5-5-5-|
 |-1-1-------------|-6-6-------------|-6-6-----6-6-----|-1-1-------------|
 |---------2-2-5-5-|-----3-3-3-3-3-3-|-----3-3-----3-3-|-----------------|

[E] [E] [E] [E] [E] [E] [E] [E] [E] [E] [E] [E] [E] [E] [E] [E] [E] [E] [E] [E] [E] [E] [E] [E] [E] [E] [E] [E] [E] [E] [E] [E]  
 
 |-----------------|-----------------|---------5-5-----|-----------------------|
 |-----5-5---------|-5-5-------------|-5-5-------------|-----------------------|
 |-1-1-------------|-----1-1-1-1-1-1-|-----1-1---------|-----------------------|
 |---------2-2-5-5-|-----------------|-------------6-6-|-6-6S15-15-15-15-15-15-|

Q=217
E E E E E E E E W +W Q. E +Q Q
 
 |-----------------------|----------|------------|------------------|
 |-----------------------|----------|------------|------------------|
 |-----------------------|----------|------------|------------------|
 |-6-6s15-15s10-10s15-15s|=6--------|-(6)--------|-8----10-(10)--6--|

+E E +Q Q Q W +W Q. E +Q Q
 
 |------------------|----------|------------|----------------|
 |------------------|----------|------------|----------------|
 |------------------|----------|------------|-3----5-(5)-----|
 |-(6)-8-(8)--5--6--|-3--------|-(3)--------|-------------6--|

+E E +Q Q Q W +W Q. E +Q Q
 
 |------------------|----------|------------|------------------|
 |------------------|----------|------------|------------------|
 |------------------|----------|------------|------------------|
 |-(6)-8-(8)--5--6--|-6--------|-(6)--------|-8----10-(10)--6--|

+E E +Q Q Q W +W Q. E +Q Q
 
 |------------------|----------|------------|----------------|
 |------------------|----------|------------|----------------|
 |------------------|----------|------------|-3----5-(5)-----|
 |-(6)-8-(8)--5--6--|-3--------|-(3)--------|-------------6--|

Q=215
+E E +Q Q Q W +H H W
 
 |------------------|----------|-------------|-------|
 |------------------|----------|-------------|-------|
 |------------------|----------|-------------|-------|
 |-(6)-8-(8)--5--6--|-6--------|-(6)----8----|-10----|

W W +W W
 
 |----------|----------|------------|------|
 |----------|----------|------------|------|
 |-0--------|----------|------------|------|
 |----------|-3--------|-(3)--------|-3----|

+W W +H H W
 
 |------------|----------|-------------|------|
 |------------|----------|-------------|------|
 |------------|-1--------|-(1)----3----|-5----|
 |-(3)--------|----------|-------------|------|

W W +W W
 
 |----------|----------|------------|------|
 |----------|----------|------------|------|
 |----------|----------|------------|------|
 |-5--------|-3--------|-(3)--------|-1----|

W W +H H W
 
 |----------|----------|-------------|------|
 |----------|----------|-------------|------|
 |----------|-1--------|-(1)----3----|-5----|
 |-1--------|----------|-------------|------|

W W +W W
 
 |----------|----------|------------|------|
 |----------|----------|------------|------|
 |----------|----------|------------|------|
 |-5--------|-3--------|-(3)--------|-1----|

W W +H H W
 
 |----------|----------|-------------|------|
 |----------|----------|-------------|------|
 |----------|-1--------|-(1)----3----|-5----|
 |-1--------|----------|-------------|------|

Q=218
W Q S S E S S E S S E E E E E E E E E
 
 |----------|----------------------|-------2---------|
 |----------|----------------------|---1-4---4-1-4-1-|
 |----------|----------------------|-3---------------|
 |-5--------|-3--3-3-3-3-3-3-3-3-3-|-----------------|

Q S S E S S E S S E E E E E E E E E Q S S E S S E S S E
 
 |----------------------|-----------------|----------------------|
 |----------------------|-----------------|----------------------|
 |----------------------|-6-3---3---------|----------------------|
 |-3--3-3-3-3-3-3-3-3-3-|-----5---5-2-5-2-|-3--3-3-3-3-3-3-3-3-3-|

E E E E E E E E Q S S E S S E S S E E E E E E E E E
 
 |-------2---------|----------------------|-----------------|
 |---1-4---4-1-4-1-|----------------------|-----------------|
 |-3---------------|----------------------|-1-1-1-0-1-1-----|
 |-----------------|-3--3-3-3-3-3-3-3-3-3-|-------------2-2-|

Q S S E S S E S S E E E E E E E E E Q S S E S S E S S E
 
 |----------------------|-------2---------|----------------------|
 |----------------------|---1-4---4-1-4-1-|----------------------|
 |----------------------|-3---------------|----------------------|
 |-3--3-3-3-3-3-3-3-3-3-|-----------------|-3--3-3-3-3-3-3-3-3-3-|

E E E E E E E E Q S S E S S E S S E E E E E E E E E
 
 |-----------------|----------------------|-------2---------|
 |-----------------|----------------------|---1-4---4-1-4-1-|
 |-6-3---3---------|----------------------|-3---------------|
 |-----5---5-2-5-2-|-3--3-3-3-3-3-3-3-3-3-|-----------------|

Q=215
Q S S E S S E S S E E E E E E E E E E E E E E E E E E E E E E E E E
 
 |----------------------|-----------------|-----------------|------------------|
 |----------------------|-----------------|-------5---4-----|-------5---4------|
 |----------------------|-1-1-1-0-1-1-----|-3-5-6---6---6-5-|-3-5-6---6---6-5--|
 |-3--3-3-3-3-3-3-3-3-3-|-------------2-2-|-----------------|------------------|

[E] [E] [E] [E] [E] [E] [E] [E] [E] [E] [E] [E] [E] [E] [E] [E] [E] [E] [E] [E] [E] [E] [E] [E] [E] [E] [E] [E] [E] [E] [E] [E]  
 
 |-----------------|-----------------|-----------------|-----------------|
 |-------5---4-----|-----------------|-------5---4-----|-------5---4-----|
 |-3-5-6---6---6-5-|-5-5-5-5---------|-3-5-6---6---6-5-|-3-5-6---6---6-5-|
 |-----------------|---------2-2-2-2-|-----------------|-----------------|

[E] [E] [E] [E] [E] [E] [E] [E] [E] [E] [E] [E] [E] [E] [E] [E] [E] [E] [E] [E] [E] [E] [E] [E] [E] [E] [E] [E] [E] [E] [E] [E]  
 
 |-----------------|-----------------|-----------------|-----------------|
 |-------5---4-----|-4-4-4-4---------|-------5---4-----|-------5---4-----|
 |-3-5-6---6---6-5-|-----------------|-3-5-6---6---6-5-|-3-5-6---6---6-5-|
 |-----------------|---------2-2-2-2-|-----------------|-----------------|

[E] [E] [E] [E] [E] [E] [E] [E] [E] [E] [E] [E] [E] [E] [E] [E] [E] [E] [E] [E] [E] [E] [E] [E] [E] [E] [E] [E] [E] [E] [E] [E]  
 
 |-----------------|-----------------|-----------------|-----------------|
 |-------5---4-----|---------4-4-----|-------5---4-----|-------5---4-----|
 |-3-5-6---6---6-5-|-5-5-------------|-3-5-6---6---6-5-|-3-5-6---6---6-5-|
 |-----------------|-----2-2-----2-2-|-----------------|-----------------|

E E E E E E E E E E Q H E E Q H H S S E S S E
 
 |-----------------|-------------|-------------|------------------|
 |-------5---4-----|-------------|-------------|------------------|
 |-3-5-6---6---6-5-|-5-----------|--------5----|------------------|
 |-----------------|-------------|-5-----------|-3----3-3-3-3-3-3-|

S S S S S S S S S S S S S S S S S S S S S S S S S S S S S S S S
 
 |---------------------------------|---------------------------------|
 |---------------------------------|---------0-0-0-0-0-0-0-0-0-0-0-0-|
 |---------1-1-1-1-----------------|---------------------------------|
 |-3-3-3-3---------3-3-3-3-2-2-2-2-|-2-2-2-2-------------------------|

S S S S S S S S S S S S S S S S H S S E S S E
 
 |---------------------------------|-------------------|
 |-0-0-0-0-0-0-0-0-0-0-0-0-0-0-0-0-|-------------------|
 |---------------------------------|-------------------|
 |---------------------------------|-3----3-3-3-3-3-3--|

S S S S S S S S S S S S S S S S S S S S S S S S S S S S S S S S
 
 |---------------------------------|---------------------------------|
 |---------------------------------|---------0-0-0-0-----------------|
 |---------1-1-1-1-----------------|-----------------3-3-3-3-3-3-3-3-|
 |-3-3-3-3---------3-3-3-3-2-2-2-2-|-2-2-2-2-------------------------|

S S S S S S S S H H S S E S S E
 
 |----------------------|------------------|
 |----------------------|------------------|
 |-3-3-3-3-3-3-3-3-3----|------------------|
 |----------------------|-3----3-3-3-3-3-3-|

S S S S S S S S S S S S S S S S S S S S S S S S S S S S S S S S
 
 |---------------------------------|---------------------------------|
 |---------------------------------|---------0-0-0-0-0-0-0-0-0-0-0-0-|
 |---------1-1-1-1-----------------|---------------------------------|
 |-3-3-3-3---------3-3-3-3-2-2-2-2-|-2-2-2-2-------------------------|

S S S S S S S S S S S S S S S S H S S E S S E
 
 |---------------------------------|-------------------|
 |-0-0-0-0-0-0-0-0-0-0-0-0-0-0-0-0-|-------------------|
 |---------------------------------|-------------------|
 |---------------------------------|-3----3-3-3-3-3-3--|

S S S S S S S S S S S S S S S S S S S S Q H H H
 
 |---------------------------------|-----------------|--------------|
 |---------------------------------|-----------------|--------------|
 |---------1-1-1-1-----------------|---------5--3----|-1----/17\----|
 |-3-3-3-3---------3-3-3-3-2-2-2-2-|-2-2-2-2---------|--------------|

Q=216
H S S E S S E S S S S S S S S S S S S S S S S
 
 |------------------|----------------------------------|
 |------------------|----------------------------------|
 |------------------|---------1-1-1-1------------------|
 |-3----3-3-3-3-3-3-|-3-3-3-3---------3-3-3-3-2-2-2-2--|

S S S S S S S S S S S S S S S S S S S S S S S S S S S S S S S S
 
 |---------------------------------|---------------------------------|
 |---------0-0-0-0-0-0-0-0-0-0-0-0-|-0-0-0-0-0-0-0-0-0-0-0-0-0-0-0-0-|
 |---------------------------------|---------------------------------|
 |-2-2-2-2-------------------------|---------------------------------|

H S S E S S E S S S S S S S S S S S S S S S S
 
 |------------------|----------------------------------|
 |------------------|----------------------------------|
 |------------------|---------1-1-1-1------------------|
 |-3----3-3-3-3-3-3-|-3-3-3-3---------3-3-3-3-2-2-2-2--|

S S S S S S S S S S S S S S S S S S S S S S S S H
 
 |---------------------------------|----------------------|
 |---------0-0-0-0-----------------|----------------------|
 |-----------------3-3-3-3-3-3-3-3-|-3-3-3-3-3-3-3-3-3----|
 |-2-2-2-2-------------------------|----------------------|

H S S E S S E S S S S S S S S S S S S S S S S
 
 |------------------|----------------------------------|
 |------------------|----------------------------------|
 |------------------|---------1-1-1-1------------------|
 |-3----3-3-3-3-3-3-|-3-3-3-3---------3-3-3-3-2-2-2-2--|

S S S S S S S S S S S S S S S S S S S S S S S S S S S S S S S S
 
 |---------------------------------|---------------------------------|
 |---------0-0-0-0-0-0-0-0-0-0-0-0-|-0-0-0-0-0-0-0-0-0-0-0-0-0-0-0-0-|
 |---------------------------------|---------------------------------|
 |-2-2-2-2-------------------------|---------------------------------|

H S S E S S E S S S S S S S S S S S S S S S S S S S S Q H
 
 |------------------|---------------------------------|-----------------|
 |------------------|---------------------------------|-----------------|
 |------------------|---------1-1-1-1-----------------|---------5--3----|
 |-3----3-3-3-3-3-3-|-3-3-3-3---------3-3-3-3-2-2-2-2-|-2-2-2-2---------|

[B] [B] [E] [E] [E] [E] [E] [E] [E] [E] [E] [E] [E] [E] [E] [E] [E] [E] [E] [E] [E] [E] [E] [E] [E] [E]  
 
 |------------|-----------------|-----------------|-----------------|
 |------------|-----5-5-5-5-5-5-|-----------------|-----5-5-5-5-5-5-|
 |-1----/5----|-1-1-------------|-----------------|-6-6-------------|
 |------------|-----------------|-6-6-3-3-2-2-5-5-|-----------------|

[E] [E] [E] [E] [E] [E] [E] [E] [E] [E] [E] [E] [E] [E] [E] [E] [E] [E] [E] [E] [E] [E] [E] [E] [E] [E] [E] [E] [E] [E] [E] [E]  
 
 |-----------------|-----------------|-----------------|-----------------|
 |-----------------|-----5-5-5-5-5-5-|-----5-5-----5-5-|-----5-5-5-5-5-5-|
 |-6-6-----6-6-----|-1-1-------------|-1-1-----1-1-----|-1-1-------------|
 |-----3-3-----3-3-|-----------------|-----------------|-----------------|

[E] [E] [E] [E] [E] [E] [E] [E] [E] [E] [E] [E] [E] [E] [E] [E] [E] [E] [E] [E] [E] [E] [E] [E] [E] [E] [E] [E] [E] [E] [E] [E]  
 
 |-----------------||------------------|-----------------|-----------------|
 |-----5-5---------||o-----------------|-----------------|-----5-5-5-5-5-5-|
 |-1-1-------------||o-6-6-------------|-6-6-----6-6-----|-1-1-------------|
 |---------2-2-5-5-||------3-3-3-3-3-3-|-----3-3-----3-3-|-----------------|

E E E E E E E E H H H H W
 
 |------------------||------0----|-----------|------|
 |-----5-5---------o||-----------|-4---------|------|
 |-1-1-------------o||-6---------|------6----|------|
 |---------2-2-5-5--||-----------|-----------|-6----|

Q=194
W +W +W [4/4] +W [3/4] E E E E +Q
 
 |----------|------------|------------|----------|-------------|
 |----------|------------|------------|----------|-------------|
 |----------|------------|------------|----------|-------------|
 |-2--------|-(2)--------|-(2)--------|-(2)------|-3-3-3-3-(3)-|

E E E E +Q E E E E E E E E E E E E
 
 |--------------|-------------|-------------|
 |--------------|-------------|-------------|
 |--------------|-------------|-------------|
 |-3-----3-(3)--|-3-3-3-3-3-3-|-3-3-3-3-3-3-|

E E E E Q E E E E Q E E E E +Q
 
 |-0-0-0-0-0--|-0-----0-0--|--------------|
 |------------|------------|--------------|
 |------------|------------|--------------|
 |------------|------------|-2-2-2-2-(2)--|

E E E E +Q E E E E +Q E E E E +Q
 
 |--------------|--------------|--------------|
 |--------------|--------------|--------------|
 |--------------|--------------|--------------|
 |-2-2-2-2-(2)--|-3-3-3-3-(3)--|-3-----3-(3)--|

E E E E E E E E E E E E E E E E Q
 
 |-------------|-------------|-0-0-0-0-0--|
 |-------------|-------------|------------|
 |-------------|-------------|------------|
 |-3-3-3-3-3-3-|-3-3-3-3-3-3-|------------|

E E E E Q E E E E +Q E E E E +Q
 
 |-0-----0-0--|--------------|--------------|
 |------------|--------------|--------------|
 |------------|--------------|--------------|
 |------------|-2-2-2-2-(2)--|-2-2-2-2-(2)--|

E E E E +Q E E E E +Q E E E E E E
 
 |--------------|--------------|-------------|
 |--------------|--------------|-------------|
 |--------------|--------------|-------------|
 |-3-3-3-3-(3)--|-3-----3-(3)--|-3-3-3-3-3-3-|

E E E E E E E E E E Q E E E E Q
 
 |-------------|-0-0-0-0-0--|-0-----0-0--|
 |-------------|------------|------------|
 |-------------|------------|------------|
 |-3-3-3-3-3-3-|------------|------------|

E E E E +Q E E E E +Q E E E E +Q
 
 |--------------|--------------|--------------|
 |--------------|--------------|--------------|
 |--------------|--------------|--------------|
 |-2-2-2-2-(2)--|-2-2-2-2-(2)--|-3-3-3-3-(3)--|

E E E E +Q E E E E E E E E E E E E
 
 |--------------|-------------|-------------|
 |--------------|-------------|-------------|
 |--------------|-------------|-------------|
 |-3-----3-(3)--|-3-3-3-3-3-3-|-3-3-3-3-3-3-|

E E E E Q E E E E Q E E E E +Q
 
 |-0-0-0-0-0--|-0-----0-0--|--------------|
 |------------|------------|--------------|
 |------------|------------|--------------|
 |------------|------------|-2-2-2-2-(2)--|

E E E E +Q E E E E +Q E E E E +Q
 
 |--------------|--------------|--------------|
 |--------------|--------------|--------------|
 |--------------|--------------|--------------|
 |-2-2-2-2-(2)--|-3-3-3-3-(3)--|-3-----3-(3)--|

E E E E E E E E E E E E E E E E Q
 
 |-------------|-------------|-0-0-0-0-0--|
 |-------------|-------------|------------|
 |-------------|-------------|------------|
 |-3-3-3-3-3-3-|-3-3-3-3-3-3-|------------|

E E E E Q E E E E +Q E E E E +Q
 
 |-0-----0-0--|--------------|--------------|
 |------------|--------------|--------------|
 |------------|--------------|--------------|
 |------------|-2-2-2-2-(2)--|-2-2-2-2-(2)--|

E E E E +Q E E E E +Q E E E E E E
 
 |--------------|--------------|-------------|
 |--------------|--------------|-------------|
 |--------------|--------------|-------------|
 |-3-3-3-3-(3)--|-3-----3-(3)--|-3-3-3-3-3-3-|

E E E E E E E E E E Q E E E E Q
 
 |-------------|-0-0-0-0-0--|-0-----0-0--|
 |-------------|------------|------------|
 |-------------|------------|------------|
 |-3-3-3-3-3-3-|------------|------------|

E E E E +Q E E E E +Q E E E E +Q
 
 |--------------|--------------|--------------|
 |--------------|--------------|--------------|
 |--------------|--------------|--------------|
 |-2-2-2-2-(2)--|-2-2-2-2-(2)--|-3-3-3-3-(3)--|

E E E E +Q E E E E E E E E E E E E
 
 |--------------|-------------|-------------|
 |--------------|-------------|-------------|
 |--------------|-------------|-------------|
 |-3-----3-(3)--|-3-3-3-3-3-3-|-3-3-3-3-3-3-|

E E E E Q E E E E Q E E E E +Q
 
 |-0-0-0-0-0--|-0-----0-0--|--------------|
 |------------|------------|--------------|
 |------------|------------|--------------|
 |------------|------------|-2-2-2-2-(2)--|

E E E E +Q
 
 |----------------*|
 |----------------*|
 |----------------*|
 |-2-2-2-2-(2)----*|

Duration Legend
 
 ---------------
 W - whole; H - half; Q - quarter; E - 8th; S - 16th; T - 32nd; X - 64th; a - acciaccatura

+ - note tied to previous; . - note dotted; .. - note double dotted
Uncapitalized letters represent notes that are staccato (1/2 duration)
Irregular groupings are notated above the duration line
Duration letters will always appear directly above the note/fret number it represents the
duration for. Duration letters with no fret number below them represent rests. Multi-
bar rests are notated in the form Wxn, where n is the number of bars to rest for. Low
melody durations appear below the staff

Important: The song above is NOT stored on the Chordie server. The original song is hosted at www.guitartabs.cc. Chordie works as a search engine and provides on-the-fly formatting. Chordie does not index songs against artists'/composers' will. To remove this song please click here.

Text color:
Chord color:
Chord grids: 
Font size:    
Page size: 

B E
Rate #1 of 1 versions

Jango Player

Login - add to songbook

SHARE PAGE  



You need to log in to post comments