Guitar Tabs, Chords and Lyrics
Server problems seems to be fixed. Chordie has been experiencing problems with songs disappearing. These issues now seems to be fixed, but still verifying the fix. If you find anything strange, please email admin@chordie.com.


When the Last Grave Has Emptied  The Black Dahlia Murder

When The Last Grave Has Emptied
The Black Dahlia Murder
[bass]  
S S S S S S S S S S S S S S S S
 
 F||-------|----------------------------------|
 C||-------|----------------------------------|
 G||-------|----------------------------------|
 C||-------|--0-0-0-0-0-0-0-0-0-0-0-0-0-0-0-0-|

S S S S S S S S S S S S S S S S S S S S S S S S S S S S S S S S
 
 ----------------------------------|----------------------------------|
 ----------------------------------|----------------------------------|
 ------------------5-5-1-1-4-4-0-0-|----------------------------------|
 --0-0-0-0-0-0-0-0-----------------|--0-0-0-0-0-0-0-0-0-0-0-0-0-0-0-0-|

S S S S S S S S S S S S S S S S S S S S S S S S S S S S S S S S
 
 ----------------------------------|----------------------------------|
 ----------------------------------|----------------------------------|
 ------------------5-5-1-1-4-4-0-0-|----------------------------------|
 --0-0-0-0-0-0-0-0-----------------|--0-0-0-0-0-0-0-0-0-0-0-0-0-0-0-0-|

S S S S S S S S S S S S S S S S S S S S S S S S S S S S S S S S
 
 ----------------------------------|----------------------------------|
 ----------------------------------|----------------------------------|
 ------------------5-5-1-1-4-4-0-0-|----------------------------------|
 --0-0-0-0-0-0-0-0-----------------|--0-0-0-0-0-0-0-0-0-0-0-0-0-0-0-0-|

S S S S S S S S S S S S S S S S S E S S S S S S E S S S S S
 
 ----------------------------------|--------------------------------|
 ----------------------------------|--------------------------------|
 ------------------5-5-1-1-4-4-0-0-|---------5-5-4-4--------5-5-4-4-|
 --0-0-0-0-0-0-0-0-----------------|--0-0--0---------0-0--0---------|

S E S S S S S S S S S S S S S S E S S S S S S E S S S S S
 
 ---------------------------------|--------------------------------|
 ---------------------------------|--------------------------------|
 ---------5-5-4-4-5-5-4-4-5-5-7-7-|---------5-5-4-4--------5-5-4-4-|
 --0-0--0-------------------------|--0-0--0---------0-0--0---------|

S E S S S S S S S S S S S S S S E S S S S S S E S S S S S
 
 ---------------------------------|--------------------------------|
 ---------------------------------|---------5-5-4-4--------5-5-4-4-|
 -----------------5-5-4-4-5-5-7-7-|--------------------------------|
 --0-0--0-0-0-0-0-----------------|--5-5--5---------5-5--5---------|

S E S S S S S S E S S S S S S E S S S S S S E S S S S S
 
 --------------------------------|--------------------------------|
 ---------5-5-4-4--------5-5-7-7-|--------------------------------|
 --------------------------------|---------5-5-4-4--------5-5-4-4-|
 --5-5--5---------5-5--5---------|--0-0--0---------0-0--0---------|

S E S S S S S S E S S S S S S E S S S S S S E S S S S S
 
 --------------------------------|--------------------------------|
 --------------------------------|---------5-5-4-4--------5-5-4-4-|
 ---------5-5-4-4--------5-5-7-7-|--------------------------------|
 --0-0--0---------0-0--0---------|--5-5--5---------5-5--5---------|

S E S S S S S S S S S S S S S S S S S S S S S S S S S
 
 ---------------------------------|--------------------------|
 ---------5-5-4-4-5-5-4-4-5-5-7-7-|--------------------------|
 ---------------------------------|------4-4-5-5-0-0-7-7-8-8-|
 --5-5--5-------------------------|--0-0---------------------|

S S S S S S S S S S S S S S S S S S S S S S S S
 
 --------------------------|--------------------------|
 --------------------------|--------------------------|
 ------7-7-5-5-7-7-5-5-4-4-|------4-4-5-5-0-0-7-7-8-8-|
 --6-6---------------------|--0-0---------------------|

S S S S S S S S S S S S S S S S S S S S S S S S
 
 --------------------------|--------------------------|
 --------------------------|--------------------------|
 ------7-7-5-5-7-7-5-5-8-8-|------4-4-5-5-0-0-7-7-8-8-|
 --6-6---------------------|--0-0---------------------|

S S S S S S S S S S S S S S S S S S S S S S S S
 
 --------------------------|--------------------------|
 --------------------------|--------------------------|
 ------7-7-5-5-7-7-5-5-4-4-|------4-4-5-5-0-0-7-7-8-8-|
 --6-6---------------------|--0-0---------------------|

S S S S S S S S S S S S S S S S S S S S S S S S S S S S
 
 --------------------------|----------------------------------|
 --------------------------|----------------------------------|
 ------7-7-5-5-7-7-5-5-8-8-|----------------------------------|
 --6-6---------------------|--0-0-0-0-0-0-0-0-0-0-0-0-0-0-0-0-|

S S S S S S S S S S S S S S S S S S S S S S S S S S S S S S S S
 
 ----------------------------------|----------------------------------|
 ----------------------------------|----------------------------------|
 ------------------5-5-1-1-4-4-0-0-|----------------------------------|
 --0-0-0-0-0-0-0-0-----------------|--0-0-0-0-0-0-0-0-0-0-0-0-0-0-0-0-|

S S S S S S S S S S S S S S S S S S S S S S S S S S S S S S S S
 
 ----------------------------------|----------------------------------|
 ----------------------------------|----------------------------------|
 ------------------5-5-1-1-4-4-0-0-|----------------------------------|
 --0-0-0-0-0-0-0-0-----------------|--0-0-0-0-0-0-0-0-0-0-0-0-0-0-0-0-|

S S S S S S S S S S S S S S S S S S S S S S S S S S S S S S S S
 
 ----------------------------------|----------------------------------|
 ----------------------------------|----------------------------------|
 ------------------5-5-1-1-4-4-0-0-|----------------------------------|
 --0-0-0-0-0-0-0-0-----------------|--0-0-0-0-0-0-0-0-0-0-0-0-0-0-0-0-|

S S S S S S S S S S S S S S S S S S S S S S S S S S S S S S S S
 
 ----------------------------------|----------------------------------|
 ----------------------------------|----------------------------------|
 ------------------5-5-1-1-4-4-0-0-|----------------------------------|
 --0-0-0-0-0-0-0-0-----------------|--0-0-0-0-0-0-0-0-0-0-0-0-0-0-0-0-|

S S S S S S S S S S S S S S S S S S S S S S S S S S S S S S S S
 
 ----------------------------------|----------------------------------|
 ----------------------------------|----------------------------------|
 ----------------------------------|----------------------------------|
 --8-8-8-8-8-8-8-8-8-8-8-8-8-8-8-8-|--0-0-0-0-0-0-0-0-0-0-0-0-0-0-0-0-|

S S S S S S S S S S S S S S S S S S S S S S S S S S S S S S S S
 
 ----------------------------------|----------------------------------|
 ----------------------------------|----------------------------------|
 ----------------------------------|----------------------------------|
 --8-8-8-8-8-8-8-8-8-8-8-8-8-8-8-8-|--0-0-0-0-0-0-0-0-0-0-0-0-0-0-0-0-|

S S S S S S S S S S S S S S S S S S S S S S S S S S S S S S S S
 
 ----------------------------------|----------------------------------|
 ----------------------------------|----------------------------------|
 ----------------------------------|----------------------------------|
 --8-8-8-8-8-8-8-8-8-8-8-8-8-8-8-8-|--0-0-0-0-0-0-0-0-0-0-0-0-0-0-0-0-|

S S S S S S S S S S S S S S S S S E S S S S S S E S S S S S
 
 ----------------------------------|--------------------------------|
 ----------------------------------|--------------------------------|
 ----------------------------------|--------------------------------|
 --8-8-8-8-8-8-8-8-8-8-8-8-8-8-8-8-|--0-0--0-0-0-0-0-0-0--0-0-0-0-0-|

S E S S S S S S S S S S S S S S E S S S S S S E S S S S S
 
 ---------------------------------|--------------------------------|
 ---------------------------------|--------------------------------|
 ---------------------------------|--------------------------------|
 --0-0--0-0-0-0-0-5-5-4-4-5-5-4-4-|--0-0--0-0-0-0-0-0-0--0-0-0-0-0-|

S E S S S S S S S S S S S S S S E S S S S S S E S S S S S
 
 ---------------------------------|--------------------------------|
 ---------------------------------|---------5-5-4-4--------5-5-4-4-|
 ---------------------------------|--------------------------------|
 --0-0--0-0-0-0-0-5-5-4-4-5-5-4-4-|--5-5--5---------5-5--5---------|

S E S S S S S S E S S S S S S E S S S S S S E S S S S S
 
 --------------------------------|--------------------------------|
 ---------5-5-4-4--------5-5-7-7-|--------------------------------|
 --------------------------------|---------5-5-4-4--------5-5-4-4-|
 --5-5--5---------5-5--5---------|--0-0--0---------0-0--0---------|

S E S S S S S S E S S S S S S E S S S S S S E S S S S S
 
 --------------------------------|--------------------------------|
 --------------------------------|---------5-5-4-4--------5-5-4-4-|
 ---------5-5-4-4--------5-5-7-7-|--------------------------------|
 --0-0--0---------0-0--0---------|--5-5--5---------5-5--5---------|

S E S S S S S S S S S S S S S S S S S S S S S S S S S
 
 ---------------------------------|--------------------------|
 ---------5-5-4-4-5-5-4-4-5-5-7-7-|--------------------------|
 ---------------------------------|------4-4-5-5-0-0-7-7-8-8-|
 --5-5--5-------------------------|--0-0---------------------|

S S S S S S S S S S S S S S S S S S S S S S S S
 
 --------------------------|--------------------------|
 --------------------------|--------------------------|
 ------7-7-5-5-7-7-5-5-4-4-|------4-4-5-5-0-0-7-7-8-8-|
 --6-6---------------------|--0-0---------------------|

S S S S S S S S S S S S S S S S S S S S S S S S
 
 --------------------------|--------------------------|
 --------------------------|--------------------------|
 ------7-7-5-5-7-7-5-5-8-8-|------4-4-5-5-0-0-7-7-8-8-|
 --6-6---------------------|--0-0---------------------|

S S S S S S S S S S S S S S S S S S S S S S S S S S S S S S E E E
 
 --------------------------|--------------------------|---------------------|
 --------------------------|--------------------------|---------------------|
 ------7-7-5-5-7-7-5-5-4-4-|------4-4-5-5-0-0-7-7-8-8-|------7-7-5-5--------|
 --6-6---------------------|--0-0---------------------|--6-6---------5--3--4|

S S S S E S S S S E S S S S S S E E E S S S S E S S S S E
 
 ------------------------|-----------------------|------------------------|
 ------------------------|-----------------------|------------------------|
 ------4---5------7---8--|------7---5---7--5--4--|------4---5------7---8--|
 --0-0---0----0-0---0----|--0-0---0---0----------|--0-0---0----0-0---0----|

S S S S S S E E E S S S S E S S S S E S S S S S S E E E
 
 -----------------------|------------------------|-----------------------|
 -----------------------|------------------------|-----------------------|
 ------7---5---7--5--8--|------4---5------7---8--|------7---5---7--5--4--|
 --0-0---0---0----------|--0-0---0----0-0---0----|--0-0---0---0----------|

S S S S E S S S S E S S S S S S E E E S S S S S S S S S S E
 
 ------------------------|-----------------------|-------------------------|
 ------------------------|-----------------------|-------------------------|
 ------4---5------7---8--|------7---5---7--5--8--|-------------------------|
 --0-0---0----0-0---0----|--0-0---0---0----------|--8-8-8-8-8-8-8-8-8-8-8--|

S S S S E S S S S E S S S S S S S S S S E S S S S S S S S S S E
 
 ------------------------|-------------------------|-----------------------|
 ------------------------|-------------------------|-----------------------|
 ------------------------|-------------------------|--8-7---5-7------------|
 --5-5-5-5-5--7-7-7-7-7--|--8-8-8-8-8-8-8-8-8-8-8--|------0-----0-8-7-0-5-7|

S S S S S S S S S S E S S S S E S S S S E S S S S S S S S S S E
 
 -------------------------|------------------------|-----------------------|
 -------------------------|------------------------|-----------------------|
 -------------------------|------------------------|-----------------------|
 --8-8-8-8-8-8-8-8-8-8-8--|--5-5-5-5-5--7-7-7-7-7--|--8-8-8-8-8-8-8-8-8-8-8|

S S S S S S S S S S E S S Q S S S S Q. S S Q S S S S Q.
 
 -------------------------|--------------------------|----------------------|
 -------------------------|--------------------------|----------------------|
 --8-7---5-7--------------|--------------------------|----------------------|
 ------0-----0-8-7-0-5-7--|--0-0------0-0-0-0--------|--0-0------0-0-0-0----|

W W S S S S S S S S S S S S S S S S
 
 -------------------|-------------------|----------------------------------|
 -------------------|-------------------|----------------------------------|
 -------------------|-------------------|----------------------------------|
 --0----------------|--L----------------|--0-0-0-0-0-0-0-0-0-0-0-0-0-0-0-0-|

S S S S S S S S S S S S S S S S S S S S S S S S S S S S S S S S
 
 ----------------------------------|----------------------------------|
 ----------------------------------|----------------------------------|
 ----------------------------------|----------------------------------|
 --0-0-0-0-0-0-0-0-0-0-0-0-0-0-0-0-|--0-0-0-0-0-0-0-0-0-0-0-0-0-0-0-0-|

S S S S S S S S S S S S S S S S S E S S S S S S E S S S S S
 
 ----------------------------------|--------------------------------|
 ----------------------------------|---------5-5-4-4--------5-5-4-4-|
 ----------------------------------|--------------------------------|
 --0-0-0-0-0-0-0-0-0-0-0-0-0-0-0-0-|--5-5--5---------5-5--5---------|

S E S S S S S S E S S S S S S E S S S S S S E S S S S S
 
 --------------------------------|--------------------------------|
 ---------5-5-4-4--------5-5-7-7-|--------------------------------|
 --------------------------------|---------5-5-4-4--------5-5-4-4-|
 --5-5--5---------5-5--5---------|--0-0--0---------0-0--0---------|

S E S S S S S S E S S S S S S E S S S S S S E S S S S S
 
 --------------------------------|--------------------------------|
 --------------------------------|---------5-5-4-4--------5-5-4-4-|
 ---------5-5-4-4--------5-5-7-7-|--------------------------------|
 --0-0--0---------0-0--0---------|--5-5--5---------5-5--5---------|

S E S S S S S S S S S S S S S S S S S S S S S S S S S
 
 ---------------------------------|--------------------------|
 ---------5-5-4-4-5-5-4-4-5-5-7-7-|--------------------------|
 ---------------------------------|------4-4-5-5-0-0-7-7-8-8-|
 --5-5--5-------------------------|--0-0---------------------|

S S S S S S S S S S S S S S S S S S S S S S S S
 
 --------------------------|--------------------------|
 --------------------------|--------------------------|
 ------7-7-5-5-7-7-5-5-4-4-|------4-4-5-5-0-0-7-7-8-8-|
 --6-6---------------------|--0-0---------------------|

S S S S S S S S S S S S S S S S S S S S S S S S
 
 --------------------------|--------------------------|
 --------------------------|--------------------------|
 ------7-7-5-5-7-7-5-5-8-8-|------4-4-5-5-0-0-7-7-8-8-|
 --6-6---------------------|--0-0---------------------|

S S S S S S S S S S S S S S S S S S S S S S S S S S S S S S E E E
 
 --------------------------|--------------------------|---------------------|
 --------------------------|--------------------------|---------------------|
 ------7-7-5-5-7-7-5-5-4-4-|------4-4-5-5-0-0-7-7-8-8-|------7-7-5-5--------|
 --6-6---------------------|--0-0---------------------|--6-6---------5--3--4|

--[E]---||
-----||
-----||
--0--||
Duration Legend
 
 ---------------

W - whole
H - half
Q - quarter
E - 8th
S - 16th
T - 32nd
X - 64th
. - note dotted
|-n-| - n-tuplets

Important: The song above is NOT stored on the Chordie server. The original song is hosted at www.guitartabs.cc. Chordie works as a search engine and provides on-the-fly formatting. Chordie does not index songs against artists'/composers' will. To remove this song please click here.

Text color:
Chord color:
Chord grids: 
Font size:    
Page size: 

E
Rate #1 of 3 versions

Login - add to songbook

SHARE PAGE  




You need to log in to post comments