Guitar Tabs, Chords and Lyrics
Major upgrade!! After one year development the new version of Chordie is now online! Please give feedback.


Hell of a Season  The Black Keys

Song: Hell Of A Season
Intro: (0:01-0:07) the bass plays
 
 e|-------------------------------|
 B|-------------------------------|
 G|-------------------------------|
 D|---2--2-2---2--2-2----2-2------| x2
 A|-------------------------------|
 E|-0--------0--0------0----------|

then the guitar comes in (0:07-0:17)
[D] [Am] [Em]  
 
 e|-5--5--5--5--7--7--7--7------|
 B|-7--7--5--5--8--8--8--8------|
 G|-7--7--5--5--9--9--9--9------|
 D|-7--7--7--7--9--9--9--9------|
 A|-----------------------------|
 E|-----------------------------|

Verse: first there's the bass on it's own
[Em] [Bm]  
 
 e|------------------------------------------------------|
 B|------------------------------------------------------|
 G|------------------------------------------------------|
 D|---2--2-2---2--2-2----2-2---9--9-9---9--9-9----9-9----|
 A|------------------------------------------------------|
 E|-0--------0--0------0-----7--------7--7------7--------|

[Am] [Em]  
 
 e|------------------------------------------------------|
 B|------------------------------------------------------|
 G|------------------------------------------------------|
 D|---7--7-7---7--7-7----7-7---2--2-2---2--2-2----2-2----|
 A|------------------------------------------------------|
 E|-5--------5--5------5-----0--------0--0------0--------|

then the guitar come back in with
[Em] [Bm] [Am] [Em]  
 
 e|-7--7--7--7--7--7--7--7--5--5--5--5--7--7--7--7--|
 B|-8--8--8--8--7--7--7--7--5--5--5--5--8--8--8--8--|
 G|-9--9--9--9--7--7--7--7--5--5--5--5--9--9--9--9--|
 D|-9--9--9--9--9--9--9--9--7--7--7--7--9--9--9--9--|
 A|-------------------------------------------------|
 E|-------------------------------------------------|

Chorus:
[Em] [D] [Am] [Em]  
 
 e|-7--7--7--7--5--5--5--5--5--5--5--5--7--7--7--7--|
 B|-8--8--8--8--7--7--7--7--5--5--5--5--8--8--8--8--|
 G|-9--9--9--9--7--7--7--7--5--5--5--5--9--9--9--9--|
 D|-9--9--9--9--7--7--7--7--7--7--7--7--9--9--9--9--| x2
 A|-------------------------------------------------|
 E|-------------------------------------------------|

there's a keyboard tune too
 
 e|----------------------------|
 B|--------12------------------|
 G|-----14---------14----------|
 D|--14---------14----14-------| x2
 A|----------------------------|
 E|----------------------------|

Verse x2
Chorus x2
Break:
Same verse chords, but really cool drums!
Solo: (Chorus chords)
 
 e|-----------------------------------------------------------------|
 B|-12-12----12-12-12------------------------------------15-12------|
 G|-------14-------------12-14-14-12-14h12----14h12-------------14--|
 D|-------------------14-------------------14-------14~~~~----------| x6
 A|-----------------------------------------------------------------|
 E|-----------------------------------------------------------------|

Outro:
 
 e|-----------------------------|
 B|-12----12-----12-------------|
 G|----14----12-----14----------|
 D|--------------------14-------|
 A|-----------------------------|
 E|-----------------------------|

The End

Important: The song above is NOT stored on the Chordie server. The original song is hosted at www.guitartabs.cc. Chordie works as a search engine and provides on-the-fly formatting. Chordie does not index songs against artists'/composers' will. To remove this song please click here.

Text color:
Chord color:
Chord grids: 
Font size:    
Page size: 

Am Bm D Em
Rate #0 of 5 versions

Login - add to songbook

SHARE PAGE  




You need to log in to post comments