Guitar Tabs, Chords and Lyrics
Major upgrade!! After one year development the new version of Chordie is now online! Please give feedback.


Money Maker   The Black Keys

 
 -----------------------------------------------------------------------------
 -----------------------------------------------------------------------------

 


 


 5. Money Maker


 


 Intro


 


 

 
 G||--------------------|--------------------|| x2
 D||--------------------|--------------------||
 A||--------------------|-3-3--3-1--1-1--1---||
 E||-3-3--3-3--1-1--1-1-|------------------1-||

 


 [i] [i] [i] [i] [i] [i] [i] [i]  

 
 G||--------------------|--------------------|
 D||--------------------|--------------------|
 A||--------------------|--------------------|
 E||-3----3----3----3---|-3-3--3-3--3-3--3-3-|

 


 [i] [i] [i] [i] [i] [i] [i] [i] 


 Verse 1


 


 

 
 G||--------------------|--------------------|| x10
 D||--------------------|--------------------||
 A||--------1--3-3--3---|--------3-3--1-1----||
 E||-3-3--3-----------1-|-3-3--3-----------1-||

 


 [i] [i] [i] [i] [i] [i] [i] [i] 


 Chorus 1


 


 

 
 G||--------------------|--------------------||
 D||--------------------|--------------------||
 A||--------------------|-3-3--3-1--1-1--1---||
 E||-3-3--3-3--1-1--1-1-|------------------1-||
 G||--------------------|--------------------|| x2
 D||--------------------|--------------------||
 A||--------------------|-3-3--3-1--1-1--1-1-||
 E||-3-3--3-3--1-1--1-1-|--------------------||
 G||--------------------|--------------------||
 D||--------------------|--------------------||
 A||--------------------|-3-3--3-1--1-1--1---||
 E||-3-3--3-3--1-1--1-1-|------------------1-||

 


 


 Verse 2


 


 

 
 G||--------------------|--------------------|| x10
 D||--------------------|--------------------||
 A||--------1--3-3--3---|--------3-3--1-1----||
 E||-3-3--3-----------1-|-3-3--3-----------1-||

 


 [i] [i] [i] [i] [i] [i] [i] [i] 


 Chorus 2


 


 

 
 G||--------------------|--------------------||
 D||--------------------|--------------------||
 A||--------------------|-3-3--3-1--1-1--1---||
 E||-3-3--3-3--1-1--1-1-|------------------1-||

 


 ( Tab from: http://www.guitartabs.cc/tabs/b/black_keys/money_maker_btab.html )


 

 
 G||--------------------|--------------------|| x2
 D||--------------------|--------------------||
 A||--------------------|-3-3--3-1--1-1--1-1-||
 E||-3-3--3-3--1-1--1-1-|--------------------||
 G||--------------------|--------------------||
 D||--------------------|--------------------||
 A||--------------------|-3-3--3-1--1-1--1---||
 E||-3-3--3-3--1-1--1-1-|------------------1-||

 


 


 Bridge


 


 

 
 G||--------------------|--------------------|
 D||--------------------|--------------------|
 A||--------------------|--------------------|
 E||-3----3----3----3---|-3-3--3-3--3-3--3-3-|

 


 [i] [i] [i] [i] [i] [i] [i] [i] 


 Solo


 


 

 
 G||--------------------|--------------------|| x4
 D||--------------------|--------------------||
 A||--------1--3-3--3---|--------3-3--1-1----||
 E||-3-3--3-----------1-|-3-3--3-----------1-||

 


 [i] [i] [i] [i] [i] [i] [i] [i]  

 
 G||--------------------|--------------------|
 D||--------------------|--------------------|
 A||--------------------|--------------------|
 E||-3----3----3----3---|-3-3--3-3--3-3--3-3-|

 


 [i] [i] [i] [i] [i] [i] [i] [i] 


 Chorus 3


 


 

 
 G||--------------------|--------------------||
 D||--------------------|--------------------||
 A||--------------------|-3-3--3-1--1-1--1---||
 E||-3-3--3-3--1-1--1-1-|------------------1-||
 G||--------------------|--------------------|| x2
 D||--------------------|--------------------||
 A||--------------------|-3-3--3-1--1-1--1-1-||
 E||-3-3--3-3--1-1--1-1-|--------------------||
 G||--------------------|--------------------||
 D||--------------------|--------------------||
 A||--------------------|-3-3--3-1--1-1--1---||
 E||-3-3--3-3--1-1--1-1-|------------------1-||
 G||--------------------|--------------------|-----|
 D||--------------------|--------------------|-----|
 A||--------------------|--------------------|-----|
 E||-3----3----3----3---|-3-3--3-3--3-3--3-3-|-3---|

 


 [i] [i] [i] [i] [i] [i] [i] [i] 


 Tab by Pedro Zappa


 

 
 -----------------------------------------------------------------------------
 -----------------------------------------------------------------------------


Important: The song above is NOT stored on the Chordie server. The original song is hosted at www.guitartabs.cc. Chordie works as a search engine and provides on-the-fly formatting. Chordie does not index songs against artists'/composers' will. To remove this song please click here.

This song is displayed as text-only. Transposing and tuning is only available for chordpro-songs.
Rate #1 of 1 versions

Jango Player

Login - add to songbook

SHARE PAGE  




You need to log in to post comments