Guitar Tabs, Chords and Lyrics
Major upgrade!! After one year development the new version of Chordie is now online! Please give feedback.


Dirty Women  Black Sabbath

Black Sabbath - Dirty Women
From Black Sabbath's "Technical Esctasy" Album 1976
standard tuning 450Hz), Moderate 120 beats/min., 4/4 count
NOTE: Lyrics may not match written music or may be incorrect.
Multiple guitar parts may not align due to space constraints.
(f) arpegio
 
 -----------------------------------------------------|
 -----------------------------------------------------|
 ---2-------2-------------2-----2----2----------------|
 --2-------2--2/3~\2-(2)-2-----2----2--2/3~\2-(2)-----|
 -0-------0-------------0-----0----0------------------|
 ----3~--------------------3~-------------------------|
 -----------------------------------------------------|
 -----------------------------------------------------|
 ---2-------2-------------2-----2----2----------------|
 --2-------2--2/3~\2-(2)-2-----2----2--2/3~\2-(2)-----|
 -0-------0-------------0-----0----0------------------|
 ----3~--------------------3~-------------------------|

The neon lights are shining on me again
 
 -----------------------------------------------------|
 -----------------------------------------------------|
 ---2-------2-------------2-----2----2----------------|
 --2-------2--2/3~\2-(2)-2-----2----2--2/3~\2-(2)-----|
 -0-------0-------------0-----0----0------------------|
 ----3~--------------------3~-------------------------|

I walk the lonley streets in search of a friend
 
 -----------------------------------------12---13---15-----------|
 ----------------------------12---13---15------------------------|
 -------------------12---14--------------------------------------|
 -----10---12---14-----------------------------------------------|
 -12-------------------------------------------------------------|
 ----------------------------------------------------------------|

[C/D] [D] [C] [C/D] [D] [C] [C/D] [D] [C] [C/D] [D] [C] [C/D] [C]  
 
 ---------------------------------------------------------------|
 ---------------------------------------------------------------|
 ---------------------------------------------------------------|
 ---5/7-7---5---5/7-7---5---5/7-7---5---5/7-7---5---5/7---5-----|
 -0-3/5-5-0-3-0-3/5-5-0-3-0-3/5-5-0-3-0-3/5-5-0-3-0-3/5-0-3-0---|
 ---------------------------------------------------------------|

I need a lady to help me to get through the night, through the night
If I could find her, then everything would be alright.
 
 -----------------------------------------------------|
 -----------------------------------------------------|
 ---2-------2-------------2-----2----2----------------|
 --2-------2--2/3~\2-(2)-2-----2----2--2/3~\2-(2)-----|
 -0-------0-------------0-----0----0------------------|
 ----3~--------------------3~-------------------------|
 -----------------------------------------------------|
 -----------------------------------------------------|
 ---2-------2-------------2-----2----2----------------|
 --2-------2--2/3~\2-(2)-2-----2----2--2/3~\2-(2)-----|
 -0-------0-------------0-----0----0------------------|
 ----3~--------------------3~-------------------------|

The sleepy city is dreaming the night time away
 
 -----------------------------------------------------|
 -----------------------------------------------------|
 ---2-------2-------------2-----2----2----------------|
 --2-------2--2/3~\2-(2)-2-----2----2--2/3~\2-(2)-----|
 -0-------0-------------0-----0----0------------------|
 ----3~--------------------3~-------------------------|

Out on the streets, I watch tomorrow becoming today
 
 -----------------------------------------12---13---15-----------|
 ----------------------------12---13---15------------------------|
 -------------------12---14--------------------------------------|
 -----10---12---14-----------------------------------------------|
 -12-------------------------------------------------------------|
 ----------------------------------------------------------------|

[C/D] [D] [C] [C/D] [D] [C] [C/D] [D] [C] [C/D] [D] [C] [C/D] [C]  
 
 ---------------------------------------------------------------|
 ---------------------------------------------------------------|
 ---------------------------------------------------------------|
 ---5/7-7---5---5/7-7---5---5/7-7---5---5/7-7---5---5/7---5-----|
 -0-3/5-5-0-3-0-3/5-5-0-3-0-3/5-5-0-3-0-3/5-5-0-3-0-3/5-0-3-0---|
 ---------------------------------------------------------------|

I see a man, he's got "take away" women for sale, yes for sale.
And says the answer, his "take away" women don't fail.
 
 -----------------------------------------------------|
 -----------------------------------------------------|
 ---2-------2-------------2-----2----2----------------|
 --2-------2--2/3~\2-(2)-2-----2----2--2/3~\2---------|
 -0-------0-------------0-----0----0------------------|
 ----3~--------------------3~-------------------------|
 ----------------------------------------------------------------------|
 ---------------------------------------------------------5h7/9~~------|
 -------------------------------------------------5^(6)----------------|
 --------------------5~-7-5h7-8~~(/5)------------------7~--------------|
 --5~-7-5h7-8~~(/5)-------------------3~-5-3h5/7-----------------------|
 ----------------------------------------------------------------------|
 ----------------------------------------------------------------------|
 ----------------------------------------------------------------------|
 ----------------------------------------------------------------------|
 --------------------5~-7-5h7-8~~(/5)----------------------------------|
 --5~-7-5h7-8~~(/5)-------------------3~-5-3h5/7-----------------------|
 ----------------------------------------------------------------------|

(1st lead break)
 
 ------------------------------------------------------------------------------------|
 -15~~~--12^(14)-15------------------------------------------------------------------|
 ------------------14p12\10------14-12^(13)-10h12p10---------------------------------|
 ---------------------------12-12-------------------12-10----------------------------|
 --------------------------------------------------------12~-10-12-10-12p10----------|
 --------------------------------------------------------------------------12-10-10~-|

 
 -------------------------------------------------------------|
 -------------------------------------------------------------|
 -------------------------------------------------------------|
 -12-12\10/12-----------8--10---12-12\10/12-----------8--10---|
 -12-12\10/12----5---5--8--10---12-12\10/12----5---5--8--10---|
 -10-10\-8/10--0-3-0-3--6---8---10-10\-8/10--0-3-0-3--6---8---|

(Guitar 2)
 
 ----------------------------------------------------------------------------|
 --------15-15p12--15p12-------------18~~-18p15----------15------------------|
 -14^(16)--------14-----14-14p12--12-----------14^(16`14)--14-14\12-12p10----|
 -------------------------------14---------------------------------------12~-|
 ----------------------------------------------------------------------------|
 ----------------------------------------------------------------------------|

(Guitar 1)
 
 -------------------------------------------------------------|
 -------------------------------------------------------------|
 -------------------------------------------------------------|
 -12-12\10/12-----------8--10---12-12\10/12-----------8--10---|
 -12-12\10/12----5---5--8--10---12-12\10/12----5---5--8--10---|
 -10-10\-8/10--0-3-0-3--6---8---10-10\-8/10--0-3-0-3--6---8---|

(Guitar 2)
 
 ----------------------------------------------------------------------------------------|
 ------------13-------13-------13-------13-------13-------13-------13-------13-----------|
 --10-12^(14)--12^(14)--12^(14)--12^(14)--12^(14)--12^(14)--12^(14)--12^(14)--12-12-10~--|
 ----------------------------------------------------------------------------------------|
 ----------------------------------------------------------------------------------------|
 ----------------------------------------------------------------------------------------|

(Guitar 1)
 
 -------------------------------------------------------------|
 -------------------------------------------------------------|
 -------------------------------------------------------------|
 -12-12\10/12-----------8--10---12-12\10/12-----------8--10---|
 -12-12\10/12----5---5--8--10---12-12\10/12----5---5--8--10---|
 -10-10\-8/10--0-3-0-3--6---8---10-10\-8/10--0-3-0-3--6---8---|

(Guitar 2)
 
 -------------------------------------------------------------|
 -----------------15-------15-------15-12/15~~-15p12--18~-----|
 -(10/)-12-14^(16)--14^(16)--14^(16)----------------14--------|
 -------------------------------------------------------------|
 -------------------------------------------------------------|
 -------------------------------------------------------------|

(Guitar 1)
 
 -------------------------------------------------------------|
 -------------------------------------------------------------|
 -------------------------------------------------------------|
 -12-12\10/12-----------8--10---12-12\10/12-----------8--10---|
 -12-12\10/12----5---5--8--10---12-12\10/12----5---5--8--10---|
 -10-10\-8/10--0-3-0-3--6---8---10-10\-8/10--0-3-0-3--6---8---|

(Guitar 2)
 
 -----------------------------------------------------------------------------------|
 ----------------------------------------------15-----------------------------------|
 -12/14~-12-12p10-10~-12-12p10--10------12^(14)--12-10-12p10--10--------------------|
 -----------------------------12--12-12---------------------12---12-12p10--10-10-12-|
 ------------------------------------------------------------------------12---------|
 -----------------------------------------------------------------------------------|

(Guitar 1)
 
 ----------------------------------------------------------------------|
 ---------------------------------------------------------5h7/9~~------|
 -------------------------------------------------5^(6)----------------|
 --------------------5~-7-5h7-8~~(/5)------------------7~--------------|
 --5~-7-5h7-8~~(/5)-------------------3~-5-3h5/7-----------------------|
 ----------------------------------------------------------------------|
 ----------------------------------------------------------------------|
 ----------------------------------------------------------------------|
 ----------------------------------------------------------------------|
 --------------------5~-7-5h7-8~~(/5)----------------------------------|
 --5~-7-5h7-8~~(/5)-------------------3~-5-3h5/7-----------------------|
 ----------------------------------------------------------------------|
 ----------------------------------------------------------------------------|
 ----------------------------------------------------------------------------|
 ----------------------------------------------------------------------------|
 ----------------------------7-5-------------------------------7-5-----------|
 -5--7--8--5-7-8-5-7-8--5-7-5---8--5-5--7--8-5-7-8-5-7-8--5-7-5---8----------|
 ---------------------8---------------------------------8--------------------|
 ----------------------------------------------------------------------------|
 ----------------------------------------------------------------------------|
 ----------------------------------------------------------------------------|
 ----------------------------7-5-------------------------------7-5-----------|
 -5--7--8--5-7-8-5-7-8--5-7-5---8--5-5--7--8-5-7-8-5-7-8--5-7-5---8----------|
 ---------------------8---------------------------------8--------------------|

A A A A A A D D D D\(C)
 
 -------------------------------------|
 -------------------------------------|
 --------------------7-7-7--7\(5)-----|
 --7-7---7-7---7-7---7-7-7--7\(5)-----|
 --7-7---7-7---7-7---5-5-5--5\(3)-----|
 --5-5---5-5---5-5--------------------|
 -------------------------------------------------------------|
 -------------------------------------------------------------|
 -------------------------------------------------------------|
 -12-12\10/12-----------8--10---12-12\10/12-----------8--10---|
 -12-12\10/12----5---5--8--10---12-12\10/12----5---5--8--10---|
 -10-10\-8/10--0-3-0-3--6---8---10-10\-8/10--0-3-0-3--6---8---|

Oh dirty
 
 -------------------------------------------------------------|
 -------------------------------------------------------------|
 -------------------------------------------------------------|
 -12-12\10/12-----------8--10---12-12\10/12-----------8--10---|
 -12-12\10/12----5---5--8--10---12-12\10/12----5---5--8--10---|
 -10-10\-8/10--0-3-0-3--6---8---10-10\-8/10--0-3-0-3--6---8---|

women They don't mess around Oh dirty
 
 -------------------------------------------------------------|
 -------------------------------------------------------------|
 -------------------------------------------------------------|
 -12-12\10/12-----------8--10---12-12\10/12-----------8--10---|
 -12-12\10/12----5---5--8--10---12-12\10/12----5---5--8--10---|
 -10-10\-8/10--0-3-0-3--6---8---10-10\-8/10--0-3-0-3--6---8---|

women They don't mess around You've got
 
 -------------------------------------------------------------|
 -------------------------------------------------------------|
 -------------------------------------------------------------|
 -12-12\10/12-----------8--10---12-12\10/12-----------8--10---|
 -12-12\10/12----5---5--8--10---12-12\10/12----5---5--8--10---|
 -10-10\-8/10--0-3-0-3--6---8---10-10\-8/10--0-3-0-3--6---8---|

coming, Ya got me going around Oh dirty
 
 -------------------------------------------------------------|
 -------------------------------------------------------------|
 -------------------------------------------------------------|
 -12-12\10/12-----------8--10---12-12\10/12-----------8--10---|
 -12-12\10/12----5---5--8--10---12-12\10/12----5---5--8--10---|
 -10-10\-8/10--0-3-0-3--6---8---10-10\-8/10--0-3-0-3--6---8---|

women They don't mess around Let's go!
 
 -----------------------------------------------------|
 -15~~------------------------------------------------|
 ----------12^(14)-12-10-12p10------------------------|
 ------12~--------------------12~--5^(7)-5-3-5p3------|
 -----------------------------------------------5~----|
 -----------------------------------------------------|

(Guitar 1)
 
 -----------------------------------------------------|
 -----------------------------------------------------|
 -0-------0-------0-------0---------------------------|
 --2-----2-2-----2-2-----2-2-----2--------------------|
 ---3---3---3---3---3---3---3---3---------------------|
 ----3-2-----3-2-----3-2-----3-2----------------------|

(Guitar 2)
 
 ------------------------------------------------------|
 -15~~-------------------------------------------------|
 ----------12^(14)-12-10-12p10-------------------------|
 ------12~--------------------12~--5^(7)-5-3-5p3-------|
 -----------------------------------------------5~-----|
 ------------------------------------------------------|

(Guitar 1)
 
 -----------------------------------------------------|
 -----------------------------------------------------|
 -0-------0-------0-------0---------------------------|
 --2-----2-2-----2-2-----2-2-----2--------------------|
 ---3---3---3---3---3---3---3---3---------------------|
 ----3-2-----3-2-----3-2-----3-2----------------------|

(Guitar 2)
Walking the streets alone and "Will it ever happen?"
 
 ------------------------------------------------------|
 -15~~-------------------------------------------------|
 ----------12^(14)-12-10-12p10-------------------------|
 ------12~--------------------12~--5^(7)-5-3-5p3-------|
 -----------------------------------------------5~-----|
 ------------------------------------------------------|

(Guitar 1)
 
 -----------------------------------------------------|
 -----------------------------------------------------|
 -0-------0-------0-------0---------------------------|
 --2-----2-2-----2-2-----2-2-----2--------------------|
 ---3---3---3---3---3---3---3---3---------------------|
 ----3-2-----3-2-----3-2-----3-2----------------------|

(Guitar 2)
Gotta be good 'cause I will need to be ok
 
 -----------------------------------------------------|
 -15~~------------------------------------------------|
 ----------12^(14)-12-10-12p10------------------------|
 ------12~--------------------12~--5^(7)-5-3-5p3------|
 -----------------------------------------------5~----|
 -----------------------------------------------------|

(Guitar 1)
 
 -----------------------------------------------------|
 -----------------------------------------------------|
 -0-------0-------0-------0---------------------------|
 --2-----2-2-----2-2-----2-2-----2--------------------|
 ---3---3---3---3---3---3---3---3---------------------|
 ----3-2-----3-2-----3-2-----3-2----------------------|

(Guitar 2)
If I could score tonight then I will end up laughing
 
 ------------------------------------------------------|
 -15~~-------------------------------------------------|
 ----------12^(14)-12-10-12p10-------------------------|
 ------12~--------------------12~--5^(7)-5-3-5p3-------|
 -----------------------------------------------5~-----|
 ------------------------------------------------------|

(Guitar 1)
 
 -----------------------------------------------------|
 -----------------------------------------------------|
 -0-------0-------0-------0---------------------------|
 --2-----2-2-----2-2-----2-2-----2--------------------|
 ---3---3---3---3---3---3---3---3---------------------|
 ----3-2-----3-2-----3-2-----3-2----------------------|

(Guitar 2)
I woke up again, it's gonna help me save my day.
 
 --------------------------------------------------------------------|
 --------------------------------------------------------------------|
 --------10-12p11p10-------------------------------------------------|
 -(7/)-12-----------12-12p10-------------12--12~--12~-14^(16)-12~----|
 ---------------------------12-10~--12/15--15---15-------------------|
 --------------------------------------------------------------------|

(Guitar 1)
 
 -----------------------------------------------------|
 -----------------------------------------------------|
 -0-------0-------0-------0---------------------------|
 --2-----2-2-----2-2-----2-2-----2--------------------|
 ---3---3---3---3---3---3---3---3---------------------|
 ----3-2-----3-2-----3-2-----3-2----------------------|

(Guitar 2)
 
 ------------------------------------------------------|
 ------------------------------------------------------|
 ------------------------------------------------------|
 -12-12----10-10-----9-9-----8-8-----------------------|
 -12-12----10-10-----9-9-----8-8-----------------------|
 -10-10-----8--8-----7-7-----6-6-----------------------|

(Guitar 3 and Bass)
Got to feel good
 
 --------10-------10------------------------------------------------------|
 -------------------------------------------------------------------------|
 -12^(14)--12^(14)--12-10-12p10-----------10-12-12^(14)-12-10-12p10--10---|
 ------------------------------14~-(9/)-12-------------------------12--12-|
 -------------------------------------------------------------------------|
 -------------------------------------------------------------------------|

(Guitar 1)
 
 -----------------------------------------------------|
 -----------------------------------------------------|
 -0-------0-------0-------0---------------------------|
 --2-----2-2-----2-2-----2-2-----2--------------------|
 ---3---3---3---3---3---3---3---3---------------------|
 ----3-2-----3-2-----3-2-----3-2----------------------|

(Guitar 2)
 
 ------------------------------------------------------|
 ------------------------------------------------------|
 ------------------------------------------------------|
 -12-12----10-10-----9-9-----8-8-----------------------|
 -12-12----10-10-----9-9-----8-8-----------------------|
 -10-10-----8--8-----7-7-----6-6-----------------------|

(Guitar 3 and Bass)
Got to feel good
 
 -----------------------15-18-18^(20`18)-15----------------------------|
 ------12-13-15-13-15/18-------------------18--------------------------|
 -12-14--------------------------------------18~-12^(14)-10-12p10------|
 ----------------------------------------------------------------12~---|
 ----------------------------------------------------------------------|
 ----------------------------------------------------------------------|

(Guitar 1)
 
 -----------------------------------------------------|
 -----------------------------------------------------|
 -0-------0-------0-------0---------------------------|
 --2-----2-2-----2-2-----2-2-----2--------------------|
 ---3---3---3---3---3---3---3---3---------------------|
 ----3-2-----3-2-----3-2-----3-2----------------------|

(Guitar 2)
 
 ------------------------------------------------------|
 ------------------------------------------------------|
 ------------------------------------------------------|
 -12-12----10-10-----9-9-----8-8-----------------------|
 -12-12----10-10-----9-9-----8-8-----------------------|
 -10-10-----8--8-----7-7-----6-6-----------------------|

(Guitar 3 and Bass)
Got to feel good
 
 ---------------------------------------------------------------------|
 --------------13-----------------------------------------------------|
 -12p10-12^(14)---12p10-12p11p10--10----------------------------------|
 -------------------------------12--12p10--10-------------------10----|
 ----------------------------------------12--12-10-------(7/)-12--12--|
 -------------------------------------------------12-10~~-------------|

(Guitar 1)
 
 -----------------------------------------------------|
 -----------------------------------------------------|
 -0-------0-------0-------0---------------------------|
 --2-----2-2-----2-2-----2-2-----2--------------------|
 ---3---3---3---3---3---3---3---3---------------------|
 ----3-2-----3-2-----3-2-----3-2----------------------|

(Guitar 2)
 
 ------------------------------------------------------|
 ------------------------------------------------------|
 ------------------------------------------------------|
 -12-12----10-10-----9-9-----8-8-----------------------|
 -12-12----10-10-----9-9-----8-8-----------------------|
 -10-10-----8--8-----7-7-----6-6-----------------------|

(Guitar 3 and Bass)
Got to feel good
 
 -----------------------------------------------------------------------------------------|
 --------10-13p10--10------13p10--10------10-(10h13~~ tr)------10-------10-------10-------|
 -12^(14)--------12--12-10~-----12--12-10~---------------12^(14)-12^(14)--12^(14)--12-10~-|
 -----------------------------------------------------------------------------------------|
 -----------------------------------------------------------------------------------------|
 -----------------------------------------------------------------------------------------|

Begin wah to end of song
(Guitar 1)
 
 -----------------------------------------------------|
 -----------------------------------------------------|
 -0-------0-------0-------0---------------------------|
 --2-----2-2-----2-2-----2-2-----2--------------------|
 ---3---3---3---3---3---3---3---3---------------------|
 ----3-2-----3-2-----3-2-----3-2----------------------|

(Guitar 2)
 
 ------------------------------------------------------|
 ------------------------------------------------------|
 ------------------------------------------------------|
 -12-12----10-10-----9-9-----8-8-----------------------|
 -12-12----10-10-----9-9-----8-8-----------------------|
 -10-10-----8--8-----7-7-----6-6-----------------------|

(Guitar 3 and Bass)
Got to feel good
 
 -----------------------------------------------------------------------------------------------|
 -10------13p10-13/15---------------------------------------------------------------------------|
 -12^(14)------------12p10--10------------------------------------10-12-12^(14~~14-14`12)-12-10-|
 -------------------------12---12-12p10--10------------------10-12------------------------------|
 --------------------------------------12--12-10-12p10--10h12-----------------------------------|
 -----------------------------------------------------12----------------------------------------|

(Guitar 1)
 
 -----------------------------------------------------|
 -----------------------------------------------------|
 -0-------0-------0-------0---------------------------|
 --2-----2-2-----2-2-----2-2-----2--------------------|
 ---3---3---3---3---3---3---3---3---------------------|
 ----3-2-----3-2-----3-2-----3-2----------------------|

(Guitar 2)
 
 ------------------------------------------------------|
 ------------------------------------------------------|
 ------------------------------------------------------|
 -12-12----10-10-----9-9-----8-8-----------------------|
 -12-12----10-10-----9-9-----8-8-----------------------|
 -10-10-----8--8-----7-7-----6-6-----------------------|

(Guitar 3 and Bass)
Got to feel good
 
 ---------------------------------------------------------------------------------|
 --------13-10---------------------------------------------10-------10------------|
 -12^(14)-----12^(14)-12-12p10--10~-10-10-12p10--10-12^(14)--12^(14)--12^(14`12)--|
 -----------------------------12---------------12---------------------------------|
 ---------------------------------------------------------------------------------|
 ---------------------------------------------------------------------------------|

(Guitar 1)
 
 -----------------------------------------------------|
 -----------------------------------------------------|
 -0-------0-------0-------0---------------------------|
 --2-----2-2-----2-2-----2-2-----2--------------------|
 ---3---3---3---3---3---3---3---3---------------------|
 ----3-2-----3-2-----3-2-----3-2----------------------|

(Guitar 2)
 
 ------------------------------------------------------|
 ------------------------------------------------------|
 ------------------------------------------------------|
 -12-12----10-10-----9-9-----8-8-----------------------|
 -12-12----10-10-----9-9-----8-8-----------------------|
 -10-10-----8--8-----7-7-----6-6-----------------------|

(Guitar 3 and Bass)
Got to feel good
 
 -----------------10-12-13-15----------------------------15-18-18-----------------------|
 -10-13p10--10-13------------13p10--10-13/15-15-15/18-18----------------13--------------|
 ---------12----------------------12-----------------------------12^(14)--12-10-12p10---|
 ------------------------------------------------------------------------------------12-|
 ---------------------------------------------------------------------------------------|
 ---------------------------------------------------------------------------------------|

(Guitar 1)
 
 -----------------------------------------------------|
 -----------------------------------------------------|
 -0-------0-------0-------0---------------------------|
 --2-----2-2-----2-2-----2-2-----2--------------------|
 ---3---3---3---3---3---3---3---3---------------------|
 ----3-2-----3-2-----3-2-----3-2----------------------|

(Guitar 2)
 
 ------------------------------------------------------|
 ------------------------------------------------------|
 ------------------------------------------------------|
 -12-12----10-10-----9-9-----8-8-----------------------|
 -12-12----10-10-----9-9-----8-8-----------------------|
 -10-10-----8--8-----7-7-----6-6-----------------------|

(Guitar 3 and Bass)
Got to feel good
 
 ---------------------------------------------------------------------------------|
 -10-12p10-10-12p10--10-12p10--10-12p10--10-12p10--10-12p10--10-12p10--10-12p10---|
 --------12--------12--------12--------12--------12--------12--------12--------12-|
 ---------------------------------------------------------------------------------|
 ---------------------------------------------------------------------------------|
 ---------------------------------------------------------------------------------|

(Guitar 1)
 
 -------------------------------------------------------------------------------------------|
 10-12p10-10-12p10--10-12p10--10-12p10--10-12p10-------10------------------------10-13^(15--|
 -----------12--------12--------12--------12-----12^(14)--12p10--10-----10-12^(14)----------|
 --------------------------------------------------------------12--12p10--------------------|
 -------------------------------------------------------------------------------------------|
 -------------------------------------------------------------------------------------------|
 -------------------------------------------------------------------------------------------|

(Guitar 1)
 
 -----------------------------------------------------|
 -----------------------------------------------------|
 -0-------0-------0-------0---------------------------|
 --2-----2-2-----2-2-----2-2-----2--------------------|
 ---3---3---3---3---3---3---3---3---------------------|
 ----3-2-----3-2-----3-2-----3-2----------------------|

(Guitar 2)
 
 ------------------------------------------------------|
 ------------------------------------------------------|
 ------------------------------------------------------|
 -12-12----10-10-----9-9-----8-8-----------------------|
 -12-12----10-10-----9-9-----8-8-----------------------|
 -10-10-----8--8-----7-7-----6-6-----------------------|

(Guitar 3 and Bass)
Got to feel good
 
 ----------------------------------------------------------------------------|
 -13-10----------------------------------------------------------------------|
 ------12p10~-12^(14)-12-10-12p10~-----10-12-12^(14-14-14-14-14~)`12~(\9)----|
 ---------------------------------10-12--------------------------------------|
 ----------------------------------------------------------------------------|
 ----------------------------------------------------------------------------|

(Guitar 1)
 
 -----------------------------------------------------|
 -----------------------------------------------------|
 -0-------0-------0-------0---------------------------|
 --2-----2-2-----2-2-----2-2-----2--------------------|
 ---3---3---3---3---3---3---3---3---------------------|
 ----3-2-----3-2-----3-2-----3-2----------------------|

(Guitar 2)
 
 ------------------------------------------------------|
 ------------------------------------------------------|
 ------------------------------------------------------|
 -12-12----10-10-----9-9-----8-8-----------------------|
 -12-12----10-10-----9-9-----8-8-----------------------|
 -10-10-----8--8-----7-7-----6-6-----------------------|

(Guitar 3 and Bass)
Got to feel good
From Black Sabbath's "Technical Esctasy" Album 1976
Tune up to C (444Hz), Moderate 120 beats/min., 4/4 count
NOTE: Lyrics may not match written music or may be incorrect.
Multiple guitar parts may not align due to space constraints.
 
 --------------------------------------------------------------------------------------------------|
 --------10-13p10-----------------------10-----------------------------------------10-----13^(15)--|
 -12^(14)--------12-10-12p10-10~-12^(14)--12p10-12-10-10h12p10h12p10--------12^(14)--12p10---------|
 -------------------------------------------------------------------12-10--------------------------|
 ------------------------------------------------------------------------12~-----------------------|
 --------------------------------------------------------------------------------------------------|

(Guitar 1)
 
 -----------------------------------------------------|
 -----------------------------------------------------|
 -0-------0-------0-------0---------------------------|
 --2-----2-2-----2-2-----2-2-----2--------------------|
 ---3---3---3---3---3---3---3---3---------------------|
 ----3-2-----3-2-----3-2-----3-2----------------------|

(Guitar 2)
 
 ------------------------------------------------------|
 ------------------------------------------------------|
 ------------------------------------------------------|
 -12-12----10-10-----9-9-----8-8-----------------------|
 -12-12----10-10-----9-9-----8-8-----------------------|
 -10-10-----8--8-----7-7-----6-6-----------------------|

(Guitar 3 and Bass)
Got to feel good
 
 ----------------------------------------------------------------------------------|
 --------10------------------------------------------------------------------------|
 -12^(14)--12-10-12p10---12p10--10-----------------------------------------12^(14)-|
 ---------------------12~-----12--12p10------------------------------10-12~--------|
 --------------------------------------12-10-12p10------------8/10h12--------------|
 -------------------------------------------------12-10\8-8/10---------------------|

(Guitar 1)
 
 -------------------------------------|
 10-13p10-10---10-13^(15)-13^(15`13)--|
 -----------12------------------------|
 -------------------------------------|
 -------------------------------------|
 -------------------------------------|
 -----------------------------------------------------|
 -----------------------------------------------------|
 -0-------0-------0-------0---------------------------|
 --2-----2-2-----2-2-----2-2-----2--------------------|
 ---3---3---3---3---3---3---3---3---------------------|
 ----3-2-----3-2-----3-2-----3-2----------------------|

(Guitar 2)
 
 ------------------------------------------------------|
 ------------------------------------------------------|
 ------------------------------------------------------|
 -12-12----10-10-----9-9-----8-8-----------------------|
 -12-12----10-10-----9-9-----8-8-----------------------|
 -10-10-----8--8-----7-7-----6-6-----------------------|

(Guitar 3 and Bass)
Got to feel good
 
 -10------10------------------------------------------------------------------|
 -13^(15)-13^(15)-10-13-10~-13^(15\10)----------------------------------------|
 --------------------------------------2p0-2^(4/(5^(7))-0-2p0-12~~~~~(/16)----|
 -----------------------------------------------------------------------------|
 -----------------------------------------------------------------------------|
 -----------------------------------------------------------------------------|

(Guitar 1)
 
 -----------------------------------------------------|
 -----------------------------------------------------|
 -0-------0-------0-------0---------------------------|
 --2-----2-2-----2-2-----2-2-----2--------------------|
 ---3---3---3---3---3---3---3---3---------------------|
 ----3-2-----3-2-----3-2-----3-2----------------------|

(Guitar 2)
 
 ------------------------------------------------------|
 ------------------------------------------------------|
 ------------------------------------------------------|
 -12-12----10-10-----9-9-----8-8-----------------------|
 -12-12----10-10-----9-9-----8-8-----------------------|
 -10-10-----8--8-----7-7-----6-6-----------------------|

(Guitar 3 and Bass)
Got to feel good
 
 --------------------------------------------------------|
 --------------------------------------------------------|
 ----------7^(9`7)-----10-12^(14`12)-10--10-12-12~~~-----|
 -3/7-3-5-7-------7-5-7----------------12----------------|
 ------7-------------------------------------------------|
 --------------------------------------------------------|

(Guitar 1)
 
 -----------------------------------------------------|
 -----------------------------------------------------|
 -0-------0-------0-------0---------------------------|
 --2-----2-2-----2-2-----2-2-----2--------------------|
 ---3---3---3---3---3---3---3---3---------------------|
 ----3-2-----3-2-----3-2-----3-2----------------------|

(Guitar 2)
 
 ------------------------------------------------------|
 ------------------------------------------------------|
 ------------------------------------------------------|
 -12-12----10-10-----9-9-----8-8-----------------------|
 -12-12----10-10-----9-9-----8-8-----------------------|
 -10-10-----8--8-----7-7-----6-6-----------------------|

(Guitar 3 and Bass)
Got to feel good
 
 -----------------------------------------------------------------------------|
 -13p10-13^(15)-13p10-13^(15)-13p10-------------------------------------------|
 ----------------------------------12~-10-12p10~~-----------------------------|
 ------------------------------------------------10-12p10~~-------------------|
 ----------------------------------------------------------10-12p10~~--12-10~-|
 --------------------------------------------------------------------12-------|

(Guitar 1)
(Begin fade)
 
 -----------------------------------------------------|
 -----------------------------------------------------|
 -0-------0-------0-------0---------------------------|
 --2-----2-2-----2-2-----2-2-----2--------------------|
 ---3---3---3---3---3---3---3---3---------------------|
 ----3-2-----3-2-----3-2-----3-2----------------------|

(Guitar 2)
 
 ------------------------------------------------------|
 ------------------------------------------------------|
 ------------------------------------------------------|
 -12-12----10-10-----9-9-----8-8-----------------------|
 -12-12----10-10-----9-9-----8-8-----------------------|
 -10-10-----8--8-----7-7-----6-6-----------------------|

(Guitar 3 and Bass)
Got to feel good
 
 -----------------------------------------------------------------------------|
 --------15-18~~-(\14)-------18~~---5-7-7^(9`7)-5-7-5~--7^(9`7)-5-7-5---------|
 -(12/)17-------------(12/)17----5/7------------------7-----------------------|
 -----------------------------------------------------------------------------|
 -----------------------------------------------------------------------------|
 -----------------------------------------------------------------------------|

(Guitar 1)
 
 -----------------------------------------------------------------------------|
 --10-------------------------------------------------------------------------|
 --12^(14`12)-10-12-12~-10-12p10-12p10-10p10-12p10-12p10-12^(14`12)-10-12-10--|
 -----------------------------------------------------------------------------|
 -----------------------------------------------------------------------------|
 -----------------------------------------------------------------------------|

(Guitar 4)
 
 -----------------------------------------------------|
 -----------------------------------------------------|
 -0-------0-------0-------0---------------------------|
 --2-----2-2-----2-2-----2-2-----2--------------------|
 ---3---3---3---3---3---3---3---3---------------------|
 ----3-2-----3-2-----3-2-----3-2----------------------|

(Guitar 2)
 
 ------------------------------------------------------|
 ------------------------------------------------------|
 ------------------------------------------------------|
 -12-12----10-10-----9-9-----8-8-----------------------|
 -12-12----10-10-----9-9-----8-8-----------------------|
 -10-10-----8--8-----7-7-----6-6-----------------------|

(Guitar 3 and Bass)
Got to feel good
 
 -----------------------------------------------------------------------------|
 -----5-------------------5-------------------------------5-------------------|
 ----5--7~~~-------------5--7~~~~------------------------5--7~~~~~------------|
 -5/7-----------------5/7-----------------------------5/7---------------------|
 -----------------------------------------------------------------------------|
 -----------------------------------------------------------------------------|

(Guitar 1)
 
 ----------------------------------------13------13------13------13--------------------|
 --16^(18)-16^(18`16)-16~(18)-16^(18`16)-16^(18)-16^(18)-16^(18)-16^(18)-16^(18`16)\12-|
 --------------------------------------------------------------------------------------|
 --------------------------------------------------------------------------------------|
 --------------------------------------------------------------------------------------|
 --------------------------------------------------------------------------------------|

(Guitar 4)
 
 -----------------------------------------------------|
 -----------------------------------------------------|
 -0-------0-------0-------0---------------------------|
 --2-----2-2-----2-2-----2-2-----2--------------------|
 ---3---3---3---3---3---3---3---3---------------------|
 ----3-2-----3-2-----3-2-----3-2----------------------|

(Guitar 2)
 
 ------------------------------------------------------|
 ------------------------------------------------------|
 ------------------------------------------------------|
 -12-12----10-10-----9-9-----8-8-----------------------|
 -12-12----10-10-----9-9-----8-8-----------------------|
 -10-10-----8--8-----7-7-----6-6-----------------------|

(Guitar 3 and Bass)
that's it enjoy!:)

Important: The song above is NOT stored on the Chordie server. The original song is hosted at www.guitartabs.cc. Chordie works as a search engine and provides on-the-fly formatting. Chordie does not index songs against artists'/composers' will. To remove this song please click here.

Text color:
Chord color:
Chord grids: 
Font size:    
Page size: 

C C/D D
Rate #2 of 3 versions

Jango Player

Login - add to songbook

SHARE PAGE  



You need to log in to post comments