Guitar Tabs, Chords and Lyrics
Major upgrade!! After one year development the new version of Chordie is now online! Please give feedback.


Falling Off the Edge of the World   Black Sabbath

 
 ------------------|
 tune down -----18^^------------|
 half step ----------------16^^----|
 ---------------------------|

 


 0.51 intro t:80


 

 
 |--------------------------------|----------------------^---^-----|
 |--------------------------------|19--------------19^-19171917----| 4 : 4
 |12----------------------12/-----|----------------------------19\-|
 |--------------------------------|--------------------------------|
 |--------------------------------|--------------------------------|
 |--------------------------------|19------------------------------|
 |12----------------------12/-----|--------------------------------|
 |--------------------------------|--------------------------------|
 |--------------------------------|--------------------------------|---
 |19------------------------------|--------------------------------|------
 |----19--------------------------|--------------------------------|---------
 |--------19--17------------------|--------------------------------|------------

 


 


 1.29 t:130


 

 
 |----------------|----------------|----------------|----------------|
 |----------------|----------------|5-4-------------|----------------|
 |----------------|----------------|----5-5-5------------------------|
 |0-0-------------|----------------|----------------|----------------|
 |----------------|----------------|----------------|----------------|
 |----------------|----------------|5-4-0-7--------------------------|
 |----------------|----------------|----------------|--------5-5-----|
 |0-0-------------|----------------|----------------|----------------|
 |----------------|----------------|----------------|----------------|
 |----------------|----------------|5-4-------------|----------------|
 |----------------|----------------|----5-5-5--------------------5-4-|
 |0-0-------------|----------------|----------------|----------------|
 |----------------|----------------|----------------|----------------|--
 |----------------|5---------------|----------------|----------------|----
 |3-3-------------|--------5-------|----------------|----------------|------
 |----------------|----------------|0---------------|----------------|--------

 


 


 2.06 theme 1


 

 
 |----------------|----------------|----------------|----------.-...-|
 |----------------|----------------|----------------|----------------|
 |----------------|----------------|----------------|----------------|
 |----------------|----------------|----------------|----------------|

 


 


 2.13


 

 
 |----------------|--------------9-|----------------|--------------9-|
 |----------------|----------7-79--|----------------|----------7-79--|
 |7---7-9-X-9X97--|7---7-9-X-------|7---7-9-X-9X97--|7---7-9-X-------|
 |--------------X-|----------------|--------------X-|----------------|

 


 


 2.19 verse 1


 

 
 |----------------|--------------9-|----------------|--------------9-|
 |----------------|----------7-79--|----------------|----------7-79--|
 |7---7-9-X-9X97--|7---7-9-X-------|7---7-9-X-9X97--|7---7-9-X-------|
 |--------------X-|----------------|--------------X-|----------------|
 |----------------|--------------9-|----------------|----------------|
 |----------------|----------7-79--|----------------|----------7-----|
 |7---7-9-X-9X97--|7---7-9-X-------|7---7-9-X-9X97--|7---7-9-X---X97-|
 |--------------X-|----------------|--------------X-|----------------|
 |----------------|--------------9-|----------------|--------------9-|
 |----------------|----------7-79--|----------------|----------7-79--|
 |7---7-9-X-9X97--|7---7-9-X-------|7---7-9-X-9X97--|7---7-9-X-------|
 |--------------X-|----------------|--------------X-|----------------|
 |99--------------|----------------|----------------|--------------9-|
 |------12------12-------12--------|----------------|----------7-79--|
 |----------------|----------10-9--|--7---9-X-9X97--|7---7-9-X-------|
 |--X-X-----X-X---|--X-X----------10--------------X-|----------------|

 


 [-3-]  

 
 |----------------|----------------|
 |----------------|----------------|
 |7---7-9-X-9X97--|----7-10---10-9-|
 |--------------X-|8-------7-------|

 


 2.48 verse 2


 

 
 |----------------|--------------9-|----------------|--------------9-|
 |----------------|----------7-79--|----------------|----------7-79--|
 |7---7-9-X-9X97--|7---7-9-X-------|7---7-9-X-9X97--|7---7-9-X-------|
 |--------------X-|----------------|--------------X-|----------------|
 |----------------|--------------9-|----------------|----------------|
 |----------------|----------7-79--|----------------|----------7-----|
 |7---7-9-X-9X97--|7---7-9-X-------|7---7-9-X-9X97--|7---7-9-X---X97-|
 |--------------X-|----------------|--------------X-|----------------|
 |----------------|--------------9-|----------------|--------------970
 |----------------|----------7-79--|----------------|----------7-79--|
 |7---7-9-X-9X97--|7---7-9-X-------|7---7-9-X-9X97--|7---7-9-X-------|
 |--------------X-|----------------|--------------X-|----------------|
 |.---------------|----------------|----------------|--------------7-|
 |------12------12-------12--------|----------------|----------7-79-9|
 |----------------|---------.10-9--|--7---9-X-9X97--|7---7-9-X-------|
 |--X-X-----X-X---|--X-X----------10--------------X-|----------------|

 


 3.14 chorus 1[-3-]


 

 
 |----------------|----------------|----------------|----------------|
 970--------------|----------------|----------------|----------------|
 |--5---5-5---5-5----5-5-5---------|--5---5-5---5-5------5-5---5-7-9-|
 |----------------|----------8-7-6-|5---------------|----------------|
 |----------------|--------------9-|----------------|--------------79|
 |----------------|----------7-79--|----------------|----------7-79--|
 |X-7---9-X-9X97--|7---7-9-X-------|7---7-9-X-9X97--|7---7-9-X-------|
 |--------------X-|----------------|--------------X-|----------------|
 |----------------|----------------|----------------|----------------|
 |----------------|----------------|----------------|----------------|
 |--5-----5-----5----5-5-5---------|--5---5-5---5-5------5-5--/10-9--|
 |----------------|----------8-7-6-|5---------------|---------------10

 


 


 3.33 solo


 

 
 |----------------|----------------|----------------|------------7-970
 |----------------|----------------|----------------|--------9-------|
 |--7--77---7-----|----------------|--X-X-X-X-X---9-|8-7---.---------|
 ---------------7-|8-----8--88---8------------------|----------------|
 |----------------|----------------|----------------|----------------|
 |----------------|----------------|----------------|----------------|
 |--X--XX--XX----------------------|----------------|----------------|
 |------------X--9---8---8--88-888----5--55-5-----5----5-..7-..8-..X-|
 |----------------|----------------|----------------|------------7-970
 |----------------|----------------|----------------|--------9-------|
 |-77---7---7-----|----------------|--X---X---X---9-|8-7-------------|
 ---------------7-|8-----8---8---8------------------|----------------|
 |----------------|----------------|----------------|----------------|
 |----------------|----------------|----------------|----------------|
 |--X---X-..X----------------------|------^--------^^---------------^^
 |------------X--9--8----8---88888----5--03-5---5-530--5--.5-5-----530
 |----------------|----------------|----------------|----------------|----------------|
 |----------------|----------------|----------------|--------------7------------------|
 |---------------^^---------------^^--------------7----9-----10------|--7---5-6-7\----|
 |--7--.7-7---7-750--7--.7-7---7-750--8-----10------|----------------|----------------|

 


 


 4.06 theme 2


 

 
 |----------------|----------------|----------------|----------.-...-|
 |----------------|----------------|----------------|----------------|
 |----------------|----------------|----------------|----------------|
 |----------------|----------------|----------------|----------------|

 


 


 4.13 verse 3


 

 
 |----------------|--------------9-|----------------|--------------9-|
 |----------------|----------7-79--|----------------|----------7-79--|
 |7---7-9-X-9X97--|7---7-9-X-------|7---7-9-X-9X97--|7---7-9-X-------|
 |--------------X-|----------------|--------------X-|----------------|
 |----------------|--------------9-|----------------|----------------|
 |----------------|----------7-79--|----------------|----------7-----|
 |7---7-9-X-9X97--|7---7-9-X-------|7---7-9-X-9X97--|7---7-9-X---X97-|
 |--------------X-|----------------|--------------X-|----------------|
 |----------------|--------------9-|----------------|--------------9-|
 |----------------|----------7-79--|----------------|----------7-79--|
 |7---7-9-X-9X97--|7---7-9-X-------|7---7-9-X-9X97--|7---7-9-X-------|
 |--------------X-|----------------|--------------X-|----------------|
 |----------------|----------------|----------------|--------------9-|
 |------12------12-------12--------|----------------|----------7-79--|
 |----------------|---------.10-9--|--7---9-X-9X97--|7---7-9-X-------|
 |--X-X-----X-X---|--X-X----------10--------------X-|----------------|

 


 [-3-]  

 
 |----------------|----------------|
 |----------------|----------------|
 |7---7-9-X-9X97--|----7-10---10-9-|
 |--------------X-|8-------7-------|
 |----------------|--------------9-|----------------|----------------|
 |----------------|----------7-79--|----------------|----------------|
 |7---7-9-X-9X97--|7---7-9-X-------|7---7-9-X-9X97--|----7-10---10-9-|
 |--------------X-|----------------|--------------X-|8-------7-8-----|
 |----------------|--------------9-|----------------|----------------|
 |----------------|----------7-79--|----------------|----------------|
 |7---7-9-X-9X97--|7---7-9-X-------|7---7-9-X-9X97--|----7------10-9-|
 |--------------X-|----------------|--------------X-|8-----8-7-------|
 |----------------|--------------9-|----------------|----------------|-
 |----------------|----------7-79--|----------------|----------------|--
 |7---7-9-X-9X97--|7---7-9-X-------|7---7-9-X-9X97--|----7------10-9-|7--
 |--------------X-|----------------|--------------X-|8-----8-7-------|----


Important: The song above is NOT stored on the Chordie server. The original song is hosted at www.guitartabs.cc. Chordie works as a search engine and provides on-the-fly formatting. Chordie does not index songs against artists'/composers' will. To remove this song please click here.

This song is displayed as text-only. Transposing and tuning is only available for chordpro-songs.
Rate #1 of 1 versions

Login - add to songbook

SHARE PAGE  



You need to log in to post comments