Guitar Tabs, Chords and Lyrics
Major upgrade!! After one year development the new version of Chordie is now online! Please give feedback.


I Witness   Black Sabbath

 
 Eb|-------------------------------|
 Ab|-------------------------------|
 Db|-------------------------1-1---|
 Gb|-3--3-3-3-3-3-3-3--3-3-1-----1-|

 


 


 Verse:


 


 

 
 Eb|-----------------------------------------------------3---5---3---|
 Ab|---5-3---------------------------------------------5---5---5---5-|
 Db|-------5------5---3---1---0-------3-1---3----1-3-5---------------|
 Gb|-3-------3--3---3---3---3---3-1-3-----3----3---------------------|

 


 


 Main Riff:


 


 

 
 Eb|-------------------------------------------------------------|
 Ab|-------------------------------------------------------------|
 Db|----------1--------------1--------------1--------------1-----|
 Gb|-3--1-2-3---1-3--3-1-2-3---1-3--3-1-2-3---1-3--3-1-2-3---1-3-|

 


 


 Play:


 


 - Verse


 - Main Riff


 - Verse


 - Main Riff


 - Verse


 - Main Riff


 


 Verse 2(X2):


 


 

 
 Eb|----------------------------------------------------------|
 Ab|----------------------------------------------------------|
 Db|-6--x-6-6-6-6-6-6-6--6-6-----6--x-6-6-6-6-6-6--6--6-6-----|
 Gb|-------------------------6-5--------------------------6-5-|

 


 [+] [+] [+] [+] 


 

 
 Eb|---------------------------------------------------------------|
 Ab|---------------------------------------------------------------|
 Db|-------------------------1-----------------------------1-1-----|
 Gb|-3--3-3-3-3-3-3-3--3-3-1---3-1-3--3-3-3-3-3-3-3--3-3-1-----3-1-|

 


 


 Verse 2(v.2):


 


 

 
 Eb|----------------------------------------------------------|
 Ab|----------------------------------------------------------|
 Db|-6--x-6-6-6-6-6-6-6--6-6-----8--x-8-8-8-8-8-8-8-8-8-8-9\--|
 Gb|-------------------------6-5------------------------------|

 


 [+] [+]  


 Play:


 - Main Riff


 - Verse


 - Main Riff


 - Verse


 - Main Riff


 - Verse


 - Main Riff


 - Verse


 - Main Riff


 - Verse 2 (x2)


 


 Verse 2(v.3):


 


 

 
 Eb|--------------------------------------------------------|
 Ab|--------------------------------------------------------|
 Db|-6--x-6-6-6-6-6-6-6--6-6-----8--x-8-8-8-8-8-8-7--7-7-9\-|
 Gb|-------------------------6-5----------------------------|

 


 [+] [+]  


 Chorus:


 


 

 
 Eb|------------------------------------5-------------|
 Ab|-------1--0---------------------------------------|
 Db|----1----------1----1----3--3---3-3---3-3-3-5-3-1-|
 Gb|-3------------------------------------------------|
 Eb|--------------------------------------------------|
 Ab|-------1--0-----------------------6-5-3-5-6-8-6\--|
 Db|----1----------1----1-----------------------------|
 Gb|-3-----------------------4--4---4-----------------|

 


 


 Chorus(v.2):


 


 

 
 Eb|--------------------------------------------------|
 Ab|-------1--0---------------------------------------|
 Db|----1----------1----1----3--3---3-3-3-3-3-3-5-3-1-|
 Gb|-3------------------------------------------------|
 Eb|-------------------------------------------------|
 Ab|-------1--0--------------------6---6-6---6-6---6-|
 Db|----1----------1----1----------------------------|
 Gb|-3-----------------------4--4--------------------|

 


 


 During The Guitar Solo:


 


 

 
 Eb|--------------|
 Ab|--------------|
 Db|----------1---|
 Gb|-3--1-2-3---1-|
 Eb|----------------|x15
 Ab|----------------|
 Db|------------1---|
 Gb|-3--3-1-2-3---1-|
 Eb|------------------|
 Ab|------------------|
 Db|------------1-----|
 Gb|-3--3-1-2-3---1-3-|

 


 


 Play:


 - Verse 2 (x2)


 - Verse 2(v.3)


 


 Chorus(v.3) (x3):


 


 

 
 Eb|------------------------------------5-------------|
 Ab|-------1--0---------------------------------------|
 Db|----1----------1----1----3--3---3-3---3-3-3-5-3-1-|
 Gb|-3------------------------------------------------|
 Eb|-------------------------------------------------|
 Ab|-------1--0-----------------6--6--6-5-3-5-6-8\---|
 Db|----1----------1----1----------------------------|
 Gb|-3-----------------------4-----------------------|

 


 


 Chorus(v.4):


 


 

 
 Eb|------------------------------------5-------------|
 Ab|-------1--0---------------------------------------|
 Db|----1----------1----1----3--3---3-3---3-3-3-5-3-1-|
 Gb|-3------------------------------------------------|
 Eb|--------------------------------|
 Ab|-------1--0---------------------|
 Db|----1----------1----1-----------|
 Gb|-3-----------------------4--4---|

 


 


 -REST-


 


 Main Riff(v.2):


 


 

 
 Eb|----------------------------------------------|
 Ab|----------------------------------------------|
 Db|----------1--------------1--------------1-----|
 Gb|-3--1-2-3---1-3--3-1-2-3---1-3--3-1-2-3---1-3-|


Important: The song above is NOT stored on the Chordie server. The original song is hosted at www.guitartabs.cc. Chordie works as a search engine and provides on-the-fly formatting. Chordie does not index songs against artists'/composers' will. To remove this song please click here.

This song is displayed as text-only. Transposing and tuning is only available for chordpro-songs.
Rate #1 of 1 versions

Jango Player

Login - add to songbook

SHARE PAGE  



You need to log in to post comments