Guitar Tabs, Chords and Lyrics
Major upgrade!! After one year development the new version of Chordie is now online! Please give feedback.


Turn Up the Night   Black Sabbath

 
 Gb|----------------------------------------------|
 Db|----------------------------------0-----------|
 Ab|-------------------------3-----0--------------|
 Eb|-1--1--1--1--1--1--1--1-----------------------|
 Gb|----------------------------------------------|
 Db|----------------------0--3--2-----0-----------|
 Ab|----------------0--3-----------3--------------|
 Eb|-1--1--1--1--1--------------------------------|

 


 


 VERSE 1


 


 

 
 Gb|--------------------------------------------------------------|
 Db|-------------------------------------------------1----1--1----|
 Ab|-------------------------------------------0--3---------------|
 Eb|-1--1--1--1--1--1--1--1--1--1--1--1--1--3---------------------|
 Gb|------------------------------|
 Db|-1--1---1--1---1--0--1--0--1--|
 Ab|------------------------------|
 Eb|------------------------------|
 Gb|--------------------------------------------------------------|
 Db|--------------------------------------------------------------|
 Ab|-------------------------------------------0--3--1----1--1----|
 Eb|-1--1--1--1--1--1--1--1--1--1--1--1--1--3---------------------|
 Gb|------------------------------|
 Db|------------------0--1--2--3--|
 Ab|-1--1---1--1---1--------------|
 Eb|------------------------------|
 Gb|--------------------------------------------------------------|
 Db|-------------------------------------------------1----1--1----|
 Ab|-------------------------------------------0--3---------------|
 Eb|-1--1--1--1--1--1--1--1--1--1--1--1--1--3---------------------|
 Gb|------------------------------|
 Db|-1--1---1--1---1--0--1--0--1--|
 Ab|------------------------------|
 Eb|------------------------------|
 Gb|--------------------------------------------------------------|
 Db|-------------------------------------------------1----1--1----|
 Ab|-------------------------------------------0--3---------------|
 Eb|-1--1--1--1--1--1--1--1--1--1--1--1--1--3---------------------|
 Gb|------------------7--5----------------------------------------------------|
 Db|-1--1---1--1---1--------7--5----------------------------------------------|
 Ab|------------------------------5----5--5----5--5----5--5----5--5--5--5--5--|
 Eb|--------------------------------------------------------------------------|

 


 


 MAIN RIFF 2 (X2)


 


 

 
 Gb|------------------------------------------7-----|
 Db|----------------------------------0----7-----7--|
 Ab|-------------------------3-----0----------------|
 Eb|-1--1--1--1--1--1--1--1-------------------------|
 Gb|----------------------------------------------|
 Db|----------------------0--3--2-----0-----------|
 Ab|----------------0--3-----------3--------------|
 Eb|-1--1--1--1--1--------------------------------|

 


 


 VERSE 2


 


 

 
 Gb|--------------------------------------------------------------|
 Db|-------------------------------------------------1----1--1----|
 Ab|-------------------------------------------0--3---------------|
 Eb|-1--1--1--1--1--1--1--1--1--1--1--1--1--3---------------------|
 Gb|------------------------------|
 Db|-1--1---1--1---1--0--1--0--1--|
 Ab|------------------------------|
 Eb|------------------------------|
 Gb|--------------------------------------------------------------|
 Db|--------------------------------------------------------------|
 Ab|-------------------------------------------0--3--1----1--1----|
 Eb|-1--1--1--1--1--1--1--1--1--1--1--1--1--3---------------------|
 Gb|------------------------------|
 Db|------------------0--1--2--3--|
 Ab|-1--1---1--1---1--------------|
 Eb|------------------------------|
 Gb|--------------------------------------------------------------|
 Db|-------------------------------------------------1----1--1----|
 Ab|-------------------------------------------0--3---------------|
 Eb|-1--1--1--1--1--1--1--1--1--1--1--1--1--3---------------------|
 Gb|------------------7--5-------------------------------------|
 Db|-1--1---1--1---1--------7--5-------------------------------|
 Ab|------------------------------5----5--5----5--5----5--5----|
 Eb|-----------------------------------------------------------|

 


 


 [a] [a]  

 
 Gb|-------------5--7--7--7--5h7--7--7--5h7--7-----------------|
 Db|-------5--7------------------------------------------------|
 Ab|-5--8---------------------------------------5--\-----/--\--|
 Eb|-----------------------------------------------------------|

 


 


 CHORUS 1


 


 

 
 Gb|------------------------------------------------|
 Db|------------------------------------------------|
 Ab|----------------------1----1--1--1--1--0--1--0--|
 Eb|-1--1--1--1--1--1--1----------------------------|
 Gb|------------------------------------------------|
 Db|------------------------------------0--1--2--3--|
 Ab|----------------------1----1--1--1--------------|
 Eb|-1--1--1--1--1--1--1----------------------------|
 Gb|----------------------|
 Db|----------------------|
 Ab|----------------------|
 Eb|-1--1--1--1--1--1--1--|

 


 


 SOLO 1


 


 

 
 Gb|-----------------------------------------------------------------|
 Db|----------------------3------3----3-----3--5---------------------|
 Ab|-5------5----5--3--5-----------------5--------3----0--3----0--3--|
 Gb|-----------------------------------------------------------------|
 Gb|-------------------------------------------------------------------5--7--|
 Db|------------------------------------------------3-------3----5--7--------|
 Ab|-5------5----5--3--3--3-3h5--5----5----5--3--5---------------------------|
 Eb|-------------------------------------------------------------------------|

 


 


 [a]  

 
 Gb|--------------------------------7--5h7--5-----|
 Db|-------------------------------------------7--|
 Ab|-3----0--3----0--3--5------5------------------|
 Eb|----------------------------------------------|

 


 


 VERSE 3


 


 

 
 Gb|--------------------------------------------|
 Db|--------------------3------3----3-----3--5--|
 Ab|-5----5----5--3--5-----------------5--------|
 Eb|--------------------------------------------|
 Gb|----------------------------------------------------------------------|
 Db|---------------------------------------------------------------3------|
 Ab|-3----0--3----0--3--5------5----5--5--3--3-h5----5----5--3--5---------|
 Eb|----------------------------------------------------------------------|
 Gb|------------5--7---------------------------------7--7--5-----|
 Db|-3----5--7------------------------------------------------7--|
 Ab|------------------3----0--3----0--3--5------5----------------|
 Eb|-------------------------------------------------------------|
 Gb|----------------------------------------------------------------------|
 Db|--------------------3------3----3-----3--5----------------------------|
 Ab|-5----5----5--3--5-----------------5--------3----0--3----0--3--5------|
 Eb|----------------------------------------------------------------------|
 Gb|-------------------------------------------------------5--7--|
 Db|-------------------------------------3------3----5--7--------|
 Ab|-5----5--5--3--3-h5----5----5--3--5--------------------------|
 Eb|-------------------------------------------------------------|
 Gb|-------------------------------------------------------------------|
 Db|-----------------------------2----3----4------5------6------7------|
 Ab|-3------4------5------6--------------------------------------------|
 Eb|-------------------------------------------------------------------|
 Gb|-----------|
 Db|-8----9----|
 Ab|-----------|
 Eb|-----------|

 


 


 SOLO 2


 


 

 
 Gb|----------------------------------------------------------------------|
 Db|--------------------3------3----3-----3--5----------------------------|
 Ab|-5----5----5--3--5-----------------5--------3----0--3----0--3--5------|
 Eb|----------------------------------------------------------------------|
 Gb|-------------------------------------------------------------|
 Db|-------------------------------------5------5----5--5--5--5--|
 Ab|-5----5--5--3--3-h5----5----5--3--5--------------------------|
 Eb|-------------------------------------------------------------|
 Gb|------------------------------------5--7----------------------------|
 Db|------------------------------5--7---------------------------3------|
 Ab|-3----0--3----0-3-5------5----------------5----5----5--3--5---------|
 Eb|--------------------------------------------------------------------|
 Gb|---------------------------------------------------------------------------|
 Db|-3----3-----3--5-----------------------------------------------------------|
 Ab|---------5--------3----0--3----0-3-5------5----5--5--3--3-h5----5----5--3--|
 Eb|---------------------------------------------------------------------------|
 Gb|-------------------------------------------------------------------------|
 Db|----5------5----5--5--5--5------------------------------2----3----4------|
 Ab|-5--------------------------3------4------5------6-----------------------|
 Eb|-------------------------------------------------------------------------|
 Gb|--------------------------------|
 Db|-5------6------7------8----9----|
 Ab|--------------------------------|
 Eb|--------------------------------|

 


 


 PLAY:


 


 MAIN RIFF(2X)


 VERSE 2


 


 CHORUS


 


 

 
 Gb|------------------------------------------------|
 Db|------------------------------------------------|
 Ab|----------------------1----1--1--1--1--0--1--0--|
 Eb|-1--1--1--1--1--1--1----------------------------|
 Gb|------------------------------------------------|
 Db|------------------------------------0--1--2--3--|
 Ab|----------------------1----1--1--1--------------|
 Eb|-1--1--1--1--1--1--1----------------------------|
 Gb|-------------------------------------------------------------------|
 Db|-------------------------------------------------------------------|
 Ab|----------------------5------5----5--3--4--5------5----5--3--4--5--|
 Eb|-1--1--1--1--1--1--1-----------------------------------------------|
 Gb|------------------------------------------------|
 Db|------------------------------------------------|
 Ab|----------------------1----1--1--1--1--0--1--0--|
 Eb|-1--1--1--1--1--1--1----------------------------|
 Gb|------------------------------------------------|
 Db|------------------------------------0--1--2--3--|
 Ab|----------------------1----1--1--1--------------|
 Eb|-1--1--1--1--1--1--1----------------------------|
 Gb|----------------------------------------------------------------5--7--|
 Db|----------------------------------------------------------5--7--------|
 Ab|----------------------5------5----5--3--4--5------5----5--------------|
 Eb|-1--1--1--1--1--1--1--------------------------------------------------|

 


 


 [a] [a] [a] [a] [a]  

 
 Gb|-7--7--5h7--7--7--5h7--7--7--5h7--7--7--5h7--7--5h7--7--|
 Db|--------------------------------------------------------|
 Ab|--------------------------------------------------------|
 Eb|--------------------------------------------------------|

 


 


 FINAL CHORUS


 


 

 
 Gb|------------------------------------------------|
 Db|------------------------------------------------|
 Ab|----------------------1----1--1--1--1--0--1--0--|
 Eb|-1--1--1--1--1--1--1----------------------------|
 Gb|------------------------------------------------|
 Db|------------------------------------0--1--2--3--|
 Ab|----------------------1----1--1--1--------------|
 Eb|-1--1--1--1--1--1--1----------------------------|

 


 


 UNTIL THE END


 


 

 
 Gb|------------------------------------------------|
 Db|------------------------------------0--1--2--3--|
 Ab|----------------------1----1--1--1--------------|
 Eb|-1--1--1--1--1--1--1----------------------------|


Important: The song above is NOT stored on the Chordie server. The original song is hosted at www.guitartabs.cc. Chordie works as a search engine and provides on-the-fly formatting. Chordie does not index songs against artists'/composers' will. To remove this song please click here.

This song is displayed as text-only. Transposing and tuning is only available for chordpro-songs.
Rate #1 of 1 versions

Login - add to songbook

SHARE PAGE  




You need to log in to post comments