Guitar Tabs, Chords and Lyrics
Server problems seems to be fixed. Chordie has been experiencing problems with songs disappearing. These issues now seems to be fixed, but still verifying the fix. If you find anything strange, please email admin@chordie.com.


On Wings of Lead  Bleeding Through

Gtr I (B F# B E G# C#) - Distortion
Gtr II (B F# B E G# C#) - Distortion
Gtr III (B F# B E G# C#) - Clean
Gtr IV (B F# B E G# C#) - Distortion
Gtr V (B F# B E G# C#) - Clean
Intro
Gtr I
PM| PM| PM|
Q E E E E E E Q S S E S S E E E
 
 |------------------|--------------------|
 |------------------|--------------------|
 |------------------|--------------------|
 |-7--5-5----/3-2-2-|-3------------------|
 |-8--7-7--0-/5-3-3-|-5--------------0-0-|
 |---------0--------|----0-0-0-0-0-0-0-0-|

[F] |--[Em]3--|[Dm] [C] [Bb5] [Bb5] [G5]
Q E. E +S E E E E +Q E E Q E E
 
 |---------------------|------------------|
 |---------------------|------------------|
 |---------------------|------------------|
 |-7--5--5-(5)-3-3-2-3-|-(3)--3-3---------|
 |-8--7--7-(7)-5-5-3S1-|-(1)--1-1-5--5-5--|
 |---------------------|----------5--5-5--|

[F]Gtr I[Em] [DmC] [Dm] [D5] [D5]
PM| PM| PM|
Q E E E E E E Q S S E S S E E E
 
 |------------------|--------------------|
 |------------------|--------------------|
 |------------------|--------------------|
 |-7--5-5---/3-2-2--|-3------------------|
 |-8--7-7-0-/5-3-3--|-5------0-----0-0-0-|
 |--------0---------|----0-0-0-0-0-0-0-0-|

[F] [Em] [Dm] [C] [Bb5]Gtrs I, II[G5]
|--3--|
Q E. E +S E E E E +Q E E Q E E
 
 |---------------------|-----------------|
 |---------------------|-----------------|
 |-------------------3-|-(3)--3-3--------|
 |-7--5--5-(5)-3-3-2-3-|-(3)--3-3-5--5-5-|
 |-8--7--7-(7)-5-5-3S1-|-(1)--1-1-5--5-5-|
 |---------------------|----------5--5-5-|

[F]Gtr[Em]s I, II[Dm] [C] [Dm] [Dm] [D5] [D5]
PM| PM| PM|
Q S +S E E E E E +Q S S E S S E E E
 
 ||---------------------|----------------------|
 ||o--------------------|----------------------|
 ||---------------------|----------------------|
 ||--7--5-(5)-5S3-0-2-3-|-(3)------------------|
 ||o-8--7-(7)-7S5-7-3-5-|-(5)------0-----0-0-0-|
 ||---------------------|------0-0-0-0-0-0-0-0-|

[F] [Em]|--3--|[Dm] [C] [Bb5] [G5]
Q E. E +S E E E E +Q E E Q E E
 
 |---------------------|-------------------||
 |---------------------|------------------o||
 |-------------------3-|-(3)--3-3----------||
 |-7--5--5-(5)-3-3-2-3-|-(3)--3-3-5--5-5---||
 |-8--7--7-(7)-5-5-3S1-|-(1)--1-1-5--5-5--o||
 |---------------------|----------5--5-5---||

Verse
[D]Gtr III[D] [A] [Bb] [D] [A] [C#]
E E E E E E Q E E E E E E Q E E E E E E Q E E E E E E Q 3x
 
 ||-----------------|----------------|----------------|------------------||
 ||o----------------|----------------|----------------|-----------------o||
 ||-----------------|----------------|---------7------|---------6--------||
 ||----------7------|---------7------|---8-------8----|---7-------7------||
 ||o---5-------5----|---8-------5----|-----8-------8--|-----7-------7---o||
 ||--0---0-0-----0--|-0---0-0-----0--|-8-----8--------|-7-----7----------||

D D5 N.C. A Bb D A C#
Gtr III
E E E E E E Q E E E E E E Q E E E E E E Q E E E E E E Q
 
 |----------------|----------------|----------------|-------------------|
 |----------------|----------------|----------------|-------------------|
 |----------------|----------------|---------7------|----------6--------|
 |---------7------|---------7------|---8-------8----|----7-------7------|
 |---5-------5----|---8-------5----|-----8-------8--|------7--------7---|
 |-0---0-0-----0--|-0---0-0-----0--|-8-----8--------|-7------7----------|

|
| Gtr II
| W W W H. Q
 
 |----------------|----------------|----------------|-------------------|
 |----------------|----------------|----------------|-------------------|
 |----------------|----------------|----------------|-------------------|
 |----------------|----------------|----------------|-------------------|
 |----------------|----------------|----------------|--------------12\--|
 |----------------|----------------|----------------|--------------12\--|

Verse
N.C.
Gtrs I, II
 
 PM------| PM------| PM|

S S E E E E E E E E E E E E E E E
 
 ||--------------------|-----------------|
 ||o-------------------|-----------------|
 ||--------------------|-----------------|
 ||------------7p0-----|-----8p0-----7p0-|
 ||o-------------------|-----------------|
 ||--0-0-0-0-0-----0-0-|-0-0-----0-0-----|
 PM----------------------------|

S S S S S S S S S S S S S S S S S S S S S S S S S S S S Q
 
 |---------------------------------|---------------------------------||
 |---------------------------------|--------------------------------o||
 |---------------------------------|------------------------------||
 |---------------------------------|---------------------------------||
 |-1-1-1-1-1-1-1-1-5-5-5-5-5-5-5-5-|-1-1-1-1-1-1-1-1-4-4-4-4--------o||
 |---------------------------------|---------------------------------||

D5 N.C.D5 N.C. D5 N.C.
Gtr I
 
 PM------| PM------| PM|

S S E E E E E E E E E E E E E E E
 
 ||--------------------|------------------|
 ||o-------------------|------------------|
 ||--------------------|------------------|
 ||------------7p0-----|------8p0-----7p0-|
 ||o-0-0-0-0-0-----0-0-|-0-0------0-0-----|
 ||--0-0-0-0-0-----0-0-|-0-0------0-0-----|

|
| Gtr II
 
 | PM------| PM------| PM|

| S S E E E E E E E E E E E E E E E
 
 ||--------------------|------------------|
 ||o-------------------|------------------|
 ||------------9-------|-----10-------9---|
 ||--------------7-----|--------7-------7-|
 ||o-0-0-0-0-0-----0-0-|-0-0------0-0-----|
 ||--0-0-0-0-0-----0-0-|-0-0------0-0-----|

TP TP TP TP
[B] [B] [B] [B]  
 
 |-----------|---------------------------||
 |-----------|--------------------------o||
 |-----------|---------------------------||
 |-----------|---------------------------||
 |-1----5----|-0----4-------------------o||
 |-----------|---------------------------||

|
| /4\
| TP TP TP TP ~~~
| H H H Q S +S +S +S
 
 |-----------|---------------------------||
 |-----------|--------------------------o||
 |-----------|---------[7]-(7)-(7)--(7)--||
 |-----------|---------------------------||
 |-1----5----|-0----4-------------------o||
 |-----------|---------------------------||

Scream Verse
[D5]Gtrs II,[A5] IV[Bb5] [A5] [Bb5] [D5] [A5] [C#5]
[E] [E] [E] [E] [E] [E] [E] [E] [E] [E] [E] [E] [E] [E] [E] [E] [E] [E] [E] [E] [E] [E] [E] [E] [E] [E] [E] [E] [E] [E] [E] [E]  
 
 ||------------------|-----------------|-----------------|-------------------||
 ||o-----------------|-----------------|-----------------|------------------o||
 ||------------------|-----------------|---------7-7-7-7-|-2-2-2-2-6-6-6-6---||
 ||--0-0-0-0-7-0-0-0-|-8-0-0-0-7-0-0-0-|-8-8-8-8-7-7-7-7-|-2-2-2-2-6-6-6-6---||
 ||o-0-0-0-0-7-0-0-0-|-8-0-0-0-7-0-0-0-|-8-8-8-8-5-5-5-5-|-0-0-0-0-4-4-4-4--o||
 ||--0-0-0-0-7-0-0-0-|-8-0-0-0-7-0-0-0-|-8-8-8-8---------|-------------------||

Breakdown
[Bb5]E E E E E E E E E E E E E E E E [C5]E E E E E E E E [C#5]q H.
 
 |-----------------|-----------------|-----------------|----------|
 |-----------------|-----------------|-----------------|----------|
 |-3-3-3-3-3-3-3-3-|-3-3-3-3-3-3-3-3-|-5-5-5-5-5-5-5-5-|-6--------|
 |-3-3-3-3-3-3-3-3-|-3-3-3-3-3-3-3-3-|-5-5-5-5-5-5-5-5-|-6--------|
 |-1-1-1-1-1-1-1-1-|-1-1-1-1-1-1-1-1-|-3-3-3-3-3-3-3-3-|-4--------|
 |-----------------|-----------------|-----------------|----------|

Verse
[F]Gtr[Em]s II, IV[Dm] [C] [Dm] [D5] [D5]
PM| PM| PM|
Q S +S E E E E E +Q S S E S S E E E
 
 ||---------------------|----------------------|
 ||o--------------------|----------------------|
 ||---------------------|----------------------|
 ||--7--5-(5)-5S3-0-2-3-|-(3)------------------|
 ||o-8--7-(7)-7S5-7-3-5-|-(5)------0-----0-0-0-|
 ||---------------------|------0-0-0-0-0-0-0-0-|

[F] [Em]|--3--|[Dm] [C] [Bb5] [G5]
Q E. E +S E E E E +Q E E Q E E 4x
 
 |---------------------|-------------------||
 |---------------------|------------------o||
 |-------------------3-|-(3)--3-3----------||
 |-7--5--5-(5)-3-3-2-3-|-(3)--3-3-5--5-5---||
 |-8--7--7-(7)-5-5-3S1-|-(1)--1-1-5--5-5--o||
 |---------------------|----------5--5-5---||

Chorus
Q=189
[D5]Gtr II[Bb5] [G5]
H. Q Q Q H +Q Q Q Q H. Q
 
 ||-------------|------------|---------------|-------------|
 ||o------------|------------|---------------|-------------|
 ||-------------|------------|---------------|-------------|
 ||--0----------|-------8----|-(8)-----------|-5-----------|
 ||o-0-------0--|-0--0--8----|-(8)--8--8--8--|-5--------5--|
 ||--0-------0--|-0--0--8----|-(8)--8--8--8--|-5--------5--|

|
| Gtr IV
| H. Q Q Q H +Q Q Q Q H. Q
 
 ||-------------|------------|---------------|-------------|
 ||o------------|------------|---------------|-------------|
 ||-------------|------------|---------------|-------------|
 ||--0----------|-------8----|-(8)-----------|-5-----------|
 ||o-0-------8--|-7--5--8----|-(8)--8--7--5--|-5-------10--|
 ||--0----------|-------8----|-(8)-----------|-5-----------|

Q Q [F5]H +Q Q Q Q 4x
 
 |------------|----------------------------------||
 |------------|---------------------------------o||
 |------------|----------------------------------||
 |-------3----|-(3)------------------------------||
 |-5--5--3----|-(3)--3--3---3-------------------o||
 |-5--5--3----|-(3)--3--3---3--------------------||

|
| /4\ /2\
| ~~~
| Q Q H +Q Q Q S +S +S +S 4x
 
 |------------|----------------------------------||
 |------------|---------------------------------o||
 |------------|------------[7]-(7)--(7)--(7)-----||
 |-------3----|-(3)------------------------------||
 |-8--7--3----|-(3)--8--7-----------------------o||
 |-------3----|-(3)------------------------------||

Final Scream - Interlude
N.C.
Gtr I
 
 PM------| PM------| PM|

S S E E E E E E E E E E E E E E E
 
 ||--------------------|-----------------|
 ||o-------------------|-----------------|
 ||--------------------|-----------------|
 ||------------7p0-----|-----8p0-----7p0-|
 ||o-------------------|-----------------|
 ||--0-0-0-0-0-----0-0-|-0-0-----0-0-----|
 PM----------------------------|

S S S S S S S S S S S S S S S S S S S S S S S S S S S S Q
 
 |---------------------------------|---------------------------------||
 |---------------------------------|--------------------------------o||
 |---------------------------------|------------------------------||
 |---------------------------------|---------------------------------||
 |-1-1-1-1-1-1-1-1-5-5-5-5-5-5-5-5-|-1-1-1-1-1-1-1-1-4-4-4-4--------o||
 |---------------------------------|---------------------------------||

Verse
D5 N.C.D5 N.C. D5 N.C.
Gtr II
 
 PM------| PM------| PM|

S S E E E E E E E E E E E E E E E
 
 ||--------------------|------------------|
 ||o-------------------|------------------|
 ||--------------------|------------------|
 ||------------7p0-----|------8p0-----7p0-|
 ||o-0-0-0-0-0-----0-0-|-0-0------0-0-----|
 ||--0-0-0-0-0-----0-0-|-0-0------0-0-----|

|
| Gtr IV
 
 | PM------| PM------| PM|

| S S E E E E E E E E E E E E E E E
 
 ||--------------------|------------------|
 ||o-------------------|------------------|
 ||------------9-------|-----10-------9---|
 ||--------------7-----|--------7-------7-|
 ||o-0-0-0-0-0-----0-0-|-0-0------0-0-----|
 ||--0-0-0-0-0-----0-0-|-0-0------0-0-----|

TP TP TP TP
[B] [B] [B] [B]  
 
 |-----------|---------------------------||
 |-----------|--------------------------o||
 |-----------|---------------------------||
 |-----------|---------------------------||
 |-1----5----|-0----4-------------------o||
 |-----------|---------------------------||

|
| /4\
| TP TP TP TP ~~~
| H H H Q S +S +S +S
 
 |-----------|---------------------------||
 |-----------|--------------------------o||
 |-----------|---------[7]-(7)-(7)--(7)--||
 |-----------|---------------------------||
 |-1----5----|-0----4-------------------o||
 |-----------|---------------------------||

N.C.
Gtrs I, II
 
 --------------------------------------TP ~~~

Q Q Q Q Q Q Q Q Q Q Q Q
 
 ||--------------|-------------|----------------||
 ||o-------------|-------------|---------------o||
 ||--------------|-------------|-------------||
 ||-----7--3--0--|-8--5--0--7--|-3--0--5--------||
 ||o-------------|-------------|---------------o||
 ||--0-----------|-------------|----------------||

N.C.
Gtr I
 
 ---------------------------------------TP ~~~

Q Q Q Q Q Q Q Q Q Q Q Q
 
 ||--------------|--------------|----------------||
 ||o-------------|--------------|---------------o||
 ||--------------|--------------|-------------||
 ||-----7--3--0--|--8--5--0--7--|-3--0--5--------||
 ||o-------------|--------------|---------------o||
 ||--0-----------|--------------|----------------||

|
| Gtr II
 
 |--------------------------------------TP ~~~

| Q Q Q Q Q Q Q Q Q Q Q Q
 
 ||--------------|--------------|----------------||
 ||o-------------|--------------|---------------o||
 ||-----9--5-----|-10--7-----9--|-5-----7-----||
 ||-----------0--|--------0-----|----0-----------||
 ||o-------------|--------------|---------------o||
 ||--0-----------|--------------|----------------||

Breakdown
D5 F5D5F5G5F5D5 F5G5F5D5G#G5F5D5 D5F5D5F5G5F5D5 N.C.
Gtrs II, IV
TP TP TP
E +E E E E E E E E E E E E E E E +E E E E E E E E Q Q Q q
 
 ||--------------------|-----------------|-------------------|-----------------||
 ||o-------------------|-----------------|-------------------|----------------o||
 ||--------------------|-----------------|-------------------|-----------------||
 ||--------------------|-----------------|-------------------|-7-----5---------||
 ||o-0-(0)-3-0-3-5-3-0-|-3-5-3-0-6-5-3-0-|-(0)-0-3-0-3-5-3-0-|----8--------o||
 ||--0-(0)-3-0-3-5-3-0-|-3-5-3-0-6-5-3-0-|-(0)-0-3-0-3-5-3-0-|-----------------||

B5 N.C.
 
 PM----------------------------------------------| TP TP TP

Q E E E E E E E E E E E E E E +E E E E E E E E Q Q Q q
 
 |----------------|-----------------|-------------------|---------------|
 |----------------|-----------------|-------------------|---------------|
 |----------------|-----------------|-------------------|---------------|
 |----------------|-----------------|-------------------|-7-----5-------|
 |-0--------------|-----------------|-------------------|----8-------|
 |-0--3-0-3-5-3-0-|-3-5-3-0-6-5-3-0-|-(0)-0-3-0-3-5-3-0-|---------------|

D5 F5D5F5G5F5D5 F5G5F5D5G#G5F5D5 D5F5D5F5G5F5D5 N.C.
TP TP TP
E E E E E E E E E E E E E E E E +E E E E E E E E Q Q Q q
 
 |-----------------|-----------------|-------------------|---------------|
 |-----------------|-----------------|-------------------|---------------|
 |-----------------|-----------------|-------------------|---------------|
 |-----------------|-----------------|-------------------|-7-----8-------|
 |-0-0-3-0-3-5-3-0-|-3-5-3-0-6-5-3-0-|-(0)-0-3-0-3-5-3-0-|----8-------|
 |-0-0-3-0-3-5-3-0-|-3-5-3-0-6-5-3-0-|-(0)-0-3-0-3-5-3-0-|---------------|

Chorus
[D5]Gtr II[Bb5] [G5]
H. Q Q Q H +Q Q Q Q H. Q
 
 ||-------------|------------|---------------|-------------|
 ||o------------|------------|---------------|-------------|
 ||-------------|------------|---------------|-------------|
 ||--0----------|-------8----|-(8)-----------|-5-----------|
 ||o-0-------0--|-0--0--8----|-(8)--8--8--8--|-5--------5--|
 ||--0-------0--|-0--0--8----|-(8)--8--8--8--|-5--------5--|

|
| Gtr IV
| H. Q Q Q H +Q Q Q Q H. Q
 
 ||-------------|------------|---------------|-------------|
 ||o------------|------------|---------------|-------------|
 ||-------------|------------|---------------|-------------|
 ||--0----------|-------8----|-(8)-----------|-5-----------|
 ||o-0-------8--|-7--5--8----|-(8)--8--7--5--|-5-------10--|
 ||--0----------|-------8----|-(8)-----------|-5-----------|

Q Q [F5]H +Q Q Q Q 4x
 
 |------------|----------------------------------||
 |------------|---------------------------------o||
 |------------|----------------------------------||
 |-------3----|-(3)------------------------------||
 |-5--5--3----|-(3)--3--3---3-------------------o||
 |-5--5--3----|-(3)--3--3---3--------------------||

|
| /4\ /2\
| ~~~
| Q Q H +Q Q Q S +S +S +S 4x
 
 |------------|----------------------------------||
 |------------|---------------------------------o||
 |------------|------------[7]-(7)--(7)--(7)-----||
 |-------3----|-(3)------------------------------||
 |-8--7--3----|-(3)--8--7-----------------------o||
 |-------3----|-(3)------------------------------||

Guitar Solo
[D5]Gtr II[Bb5]
H. Q Q Q Q +Q +Q Q Q Q
 
 |---------------|----------------------------------|--------------------|
 |---------------|----------------------------------|--------------------|
 |---------------|----------------------------------|--------------------|
 |-0-------------|-----------8---------(8)----------|--(8)---------------|
 |-0----------0--|--0---0----8---------(8)----------|--(8)--8---8-----8--|
 |-0----------0--|--0---0----8---------(8)----------|--(8)--8---8-----8--|

|
| Gtr IV
| /4\ \3.75/
| H Q Q Q Q E +E +E +E +H E E Q
 
 |---------------|---------[10]--(10)-(10)-----(10)-|-(10)-----10-10-10--|
 |-----------15--|-13-------------------------------|--------------------|
 |-------14------|-----14---------------------------|--------------------|
 |---------------|----------------------------------|--------------------|
 |---------------|----------------------------------|--------------------|
 |---------------|----------------------------------|--------------------|

[G5] H. Q Q Q [F5] H +Q Q Q Q
 
 |------------------|-----------------|------------------|
 |------------------|-----------------|------------------|
 |------------------|-----------------|------------------|
 |----5-------------|------------3----|-(3)--------------|
 |----5----------5--|---5----5---3----|-(3)---3---3---3--|
 |----5----------5--|---5----5---3----|-(3)---3---3---3--|

|
| ~~~~
| a H Q Q +Q Q H Q Q Q Q
 
 |-8-10---------12--|-(12)------13----|------15--13--15--|
 |----------10------|-------10--------|------------------|
 |------------------|-----------------|-14---------------|
 |------------------|-----------------|------------------|
 |------------------|-----------------|------------------|
 |------------------|-----------------|------------------|

[D5] H. Q Q Q [Bb5] Q +Q +Q Q Q Q
 
 |---------------------|--------------------------|---------------------|
 |---------------------|--------------------------|---------------------|
 |---------------------|--------------------------|---------------------|
 |--0------------------|--------------8----(8)----|--(8)----------------|
 |--0------------0-----|---0----0-----8----(8)----|--(8)-----8---8---8--|
 |--0------------0-----|---0----0-----8----(8)----|--(8)-----8---8---8--|

|
| Q Q Q Q +Q E E E Q E +E E Q Q Q
 
 |-18---17--15--13b15r=|=(13)-----------10-----10-|-(10)----10--10--10--|
 |---------------------|-------13-11-13-----------|------13-------------|
 |---------------------|--------------------------|---------------------|
 |---------------------|--------------------------|---------------------|
 |---------------------|--------------------------|---------------------|
 |---------------------|--------------------------|---------------------|

[G5] H. Q Q Q [F5] H +Q Q Q Q
 
 |--------------------------|-------------------------|------------------|
 |--------------------------|-------------------------|------------------|
 |--------------------------|-------------------------|------------------|
 |--5-----------------------|--------------3----------|-(3)--------------|
 |--5------------------5----|--5-----5-----3----------|-(3)---3--3---3---|
 |--5------------------5----|--5-----5-----3----------|-(3)---3--3---3---|

|
| E E E E E E E E E E E E E E E E Q Q Q Q
 
 |-10-----------------------|-------------------------|------------------|
 |-----13-11-10-11-10-13-11-|-10----10----11-10-------|------------------|
 |--------------------------|----12----12-------12-10-|-12---10--9--12---|
 |--------------------------|-------------------------|------------------|
 |--------------------------|-------------------------|------------------|
 |--------------------------|-------------------------|------------------|

[D5] W +W +W +W
 
 |---------------------|-------------|-------------|----------|
 |---------------------|-------------|-------------|----------|
 |---------------------|-------------|-------------|----------|
 |---0-----------------|--(0)--------|-------------|----------|
 |---0-----------------|--(0)--------|--(0)--------|----------|
 |---0-----------------|--(0)--------|--(0)--------|--(0)-----|

|
| >
| H +H +W +W +W
 
 |-[10]b12=====(10)----|-(10)--------|-(10)--------|-(10)r----|
 |---------------------|-------------|-------------|----------|
 |---------------------|-------------|-------------|----------|
 |---------------------|-------------|-------------|----------|
 |---------------------|-------------|-------------|----------|
 |---------------------|-------------|-------------|----------|

Pre-Chorus
[D]Gtr III[F]
Q E E E E E +E E E E E Q E E E E Q E E E E
 
 ||--------------------------|-----------------------|-----------------------|
 ||o-------------------------|-----------------------|-----------------------|
 ||---7---7--7--7--7--7--(7)-|--7--7--7--7-10--10-10-|-10-10-10--10-10-10-10-|
 ||---x---x--x--x--x--x--(x)-|--x--x--x--x--x---x--x-|--x--x--x---x--x--x--x-|
 ||o--5---5--5--5--5--5--(5)-|--5--5--5--5--8---8--8-|--8--8--8---8--8--8--8-|
 ||--------------------------|-----------------------|-----------------------|

|
| Gtr V
| Q E E E E E +E E E E E Q E E E E Q E E E E
 
 ||--------------------------|-----------------------|-----------------------|
 ||o-------------------------|-----------------------|-----------------------|
 ||--14--14-14-14-14-14-(14)-|-14-14-14-14-12--12-12-|-12-12-12--12-12-12-12-|
 ||---x---x--x--x--x--x--(x)-|--x--x--x--x--x---x--x-|--x--x--x---x--x--x--x-|
 ||o-12--12-12-12-12-12-(12)-|-12-12-12-12-10--10-10-|-10-10-10--10-10-10-10-|
 ||--------------------------|-----------------------|-----------------------|

[F] Q E E E E Q E E E E [A] Q E E E E [G] Q [F] Q [E] Q 3x
 
 |---------------------|-----------------------|------------------------||
 |---------------------|-----------------------|-----------------------o||
 |-10--10-10-10-10-10--|-10-10-10-10-14--14-14-|-14-14-12--10-----9-----||
 |--x---x--x--x--x--x--|--x--x--x--x--x---x--x-|--x--x--x---x-----x-----||
 |--8---8--8--8--8--8--|--8--8--8--8-12--12-12-|-12-12-10---8-----7----o||
 |---------------------|-----------------------|------------------------||

|
| Q E E E E Q E E E E Q E E E E Q E E E E 3x
 
 |---------------------|-----------------------|------------------------||
 |---------------------|-----------------------|-----------------------o||
 |-15--15-15-15-15-15--|-15-15-15-15-17--17-17-|-17-17-15--15-15-15-15--||
 |--x---x--x--x--x--x--|--x--x--x--x--x---x--x-|--x--x--x---x--x--x--x--||
 |-13--13-13-13-13-13--|-13-13-13-13-15--15-15-|-15-15-13--13-13-13-13-o||
 |---------------------|-----------------------|------------------------||

[D] Q E E E E E +E E E E E [F] Q E E
 
 |-------------------------|-----------------------|
 |-------------------------|-----------------------|
 |--7---7--7--7--7--7--(7)-|--7--7--7--7-10--10-10-|
 |--x---x--x--x--x--x--(x)-|--x--x--x--x--x---x--x-|
 |--5---5--5--5--5--5--(5)-|--5--5--5--5--8---8--8-|
 |-------------------------|-----------------------|

|
| Q E E E E E +E E E E E Q E E
 
 |-------------------------|-----------------------|
 |-------------------------|-----------------------|
 |-14--14-14-14-14-14-(14)-|-14-14-14-14-12--12-12-|
 |--x---x--x--x--x--x--(x)-|--x--x--x--x--x---x--x-|
 |-12--12-12-12-12-12-(12)-|-12-12-12-12-10--10-10-|
 |-------------------------|-----------------------|

[Bb]Gtr II
E E Q E E E E H +H
 
 |-----------------------|----------------|
 |-----------------------|----------------|
 |-10-10-10--10-10-10-10-|-15----(15)\----|
 |--x--x--x---x--x--x--x-|--x-----(x)\----|
 |--8--8--8---8--8--8--8-|-13----(13)\----|
 |-----------------------|----------------|

|
| Gtr IV
| E E Q E E E E H +H
 
 |-----------------------|----------------|
 |-----------------------|----------------|
 |-12-12-12--12-12-12-12-|-15----(15)\----|
 |--x--x--x---x--x--x--x-|--x-----(x)\----|
 |-10-10-10--10-10-10-10-|-13----(13)\----|
 |-----------------------|----------------|

Verse
Q=180
[F]Gtr[Em]s II, IV[Dm] [C] [Dm] [D5] [D5]
PM| PM| PM|
Q S +S E E E E E +Q S S E S S E E E
 
 ||---------------------|----------------------|
 ||o--------------------|----------------------|
 ||---------------------|----------------------|
 ||--7--5-(5)-5S3-0-2-3-|-(3)------------------|
 ||o-8--7-(7)-7S5-7-3-5-|-(5)------0-----0-0-0-|
 ||---------------------|------0-0-0-0-0-0-0-0-|

[F] [Em]|--3--|[Dm] [C] [Bb5] [G5]
Q E. E +S E E E E +Q E E Q E E 4x
 
 |---------------------|---------------------||
 |---------------------|--------------------o||
 |-------------------3-|-(3)--3-3------------||
 |-7--5--5-(5)-3-3-2-3-|-(3)--3-3-5--5-5-----||
 |-8--7--7-(7)-5-5-3S1-|-(1)--1-1-5--5-5----o||
 |---------------------|----------5--5-5-----||

Chorus
Q=190
[D5]Gtr II[Bb5] [G5]
H. Q Q Q H +Q Q Q Q H. Q
 
 ||-------------|------------|---------------|-------------|
 ||o------------|------------|---------------|-------------|
 ||-------------|------------|---------------|-------------|
 ||--0----------|-------8----|-(8)-----------|-5-----------|
 ||o-0-------0--|-0--0--8----|-(8)--8--8--8--|-5--------5--|
 ||--0-------0--|-0--0--8----|-(8)--8--8--8--|-5--------5--|

|
| Gtr IV
| H. Q Q Q H +Q Q Q Q H. Q
 
 ||-------------|------------|---------------|-------------|
 ||o------------|------------|---------------|-------------|
 ||-------------|------------|---------------|-------------|
 ||--0----------|-------8----|-(8)-----------|-5-----------|
 ||o-0-------8--|-7--5--8----|-(8)--8--7--5--|-5-------10--|
 ||--0----------|-------8----|-(8)-----------|-5-----------|

Q Q [F5]H +Q Q Q Q 3x
 
 |------------|----------------------------------||
 |------------|---------------------------------o||
 |------------|----------------------------------||
 |-------3----|-(3)------------------------------||
 |-5--5--3----|-(3)--3--3---3-------------------o||
 |-5--5--3----|-(3)--3--3---3--------------------||

|
| /4\ /2\
| ~~~
| Q Q H +Q Q Q S +S +S +S 3x
 
 |------------|----------------------------------||
 |------------|---------------------------------o||
 |------------|------------[7]-(7)--(7)--(7)-----||
 |-------3----|-(3)------------------------------||
 |-8--7--3----|-(3)--8--7-----------------------o||
 |-------3----|-(3)------------------------------||

[D5]H. Q Q Q [Bb5]H +Q Q Q Q [G5]H. Q
 
 |------------|------------|---------------|-------------|
 |------------|------------|---------------|-------------|
 |------------|------------|---------------|-------------|
 |-0----------|-------8----|-(8)-----------|-5-----------|
 |-0-------0--|-0--0--8----|-(8)--8--8--8--|-5--------5--|
 |-0-------0--|-0--0--8----|-(8)--8--8--8--|-5--------5--|

|
| H. Q Q Q H +Q Q Q Q H. Q
 
 |------------|------------|---------------|-------------|
 |------------|------------|---------------|-------------|
 |------------|------------|---------------|-------------|
 |-0----------|-------8----|-(8)-----------|-5-----------|
 |-0-------8--|-7--5--8----|-(8)--8--7--5--|-5-------10--|
 |-0----------|-------8----|-(8)-----------|-5-----------|

[F5] PM----[D5]|
Q Q H +Q Q Q Q
 
 |------------|--------------------------------|
 |------------|--------------------------------|
 |------------|--------------------------------|
 |-------3----|-(3)----------------------------|
 |-5--5--3----|-(3)---------0------------------|
 |-5--5--3----|-(3)--0--0---0------------------|

|
| /2\
| ~~~
| Q Q H +Q Q Q S +S +S +S
 
 |------------|--------------------------------|
 |------------|--------------------------------|
 |------------|------------[7]-(7)-(7)--(7)----|
 |-------3----|-(3)----------------------------|
 |-8--7--3----|-(3)--8--7----------------------|
 |-------3----|-(3)----------------------------|

Outro
[D5]Gtrs II, IV[B5] [B]
W +W +W W
 
 |----------|------------|------------|------*|
 |----------|------------|------------|------*|
 |----------|------------|------------|------*|
 |-0--------|------------|------------|------*|
 |-0--------|-(0)--------|------------|------*|
 |-0--------|-(0)--------|-(0)--------|------*|


Important: The song above is NOT stored on the Chordie server. The original song is hosted at www.guitartabs.cc. Chordie works as a search engine and provides on-the-fly formatting. Chordie does not index songs against artists'/composers' will. To remove this song please click here.

Text color:
Chord color:
Chord grids: 
Font size:    
Page size: 

A A5 B B5 Bb Bb5 C C# C#5 C5 D D5 Dm E Em F F5 G G5
Rate #1 of 3 versions

Login - add to songbook

SHARE PAGE  



You need to log in to post comments