Guitar Tabs, Chords and Lyrics
Server problems seems to be fixed. Chordie has been experiencing problems with songs disappearing. These issues now seems to be fixed, but still verifying the fix. If you find anything strange, please email admin@chordie.com.


Sadie  Blitzen Trapper

Song: SADIE
Artist: Blitzen Trapper
Album: "Destroyer of the Void" (2010)
Tab by: Devin Miller
Tuning: Standard EADGBe
==============================================================
Chord reference:
G C A7 F C* Eb Bb Fm Bm7 E D C/B D7
 
 e|--3---0---0---1-------3-------1---2---0---2---0---2---|
 B|--0---1---2---1---1---4---3---1---3---0---3---1---1---|
 G|--0---0---0---2---0---3---3---1---2---1---2---0---2---|
 D|--0---2---2---3---2---5---3---3---4---2---0---0---0---|
 A|--2---3---0---3---3---6---1---3---2---2-------2---x---|
 E|--3---3-------1---0-----------1-------0-----------2---|

[G]Sadie, make her s[C]tay
If [G]only for another d[C]ay
[G]Shoulder blades and su[C]nlight
It [G]never seems to f[C]eel right
Cuz [A7]Sadie..... [C]I..... I can never c[G]hange yea[C]h
I can never [G]change
F C*
For to change is to allow the plow
To [Eb]rearrange the [Bb]wreckage of our hea[Fm]rrrrr--earrr[C]rts
Our [Eb]heeeee[Bb]aaaaaaa[C]rts
[---]  
[G]Sadie, what's the sc[C]ore?
[G]Ride it above the do[C]or
[G]Sadness rides al[C]ong
The [G]road we're travelling o[C]n
Cuz [A7]Sadie..... [C]I..... I can never c[G]hange yea[C]h
I can never ch[G]ange, yea[C]h
I can never ch[G]ange
Guitar riff:
 
 e|------------------------|
 B|------------------------|
 G|------------------------|
 D|------------------------|
 A|-------------0-1-2------|
 E|-3-2-3-2-3-4------------|

[---]  
So [Bm7]take your own adv[E]ice
You'd better [C]think twice when you [D]find your love is go[G]ne[G7]
And [Bm7]like the sun it wa[E]its for none
I [C]know it's true, but [D]I don't have a [G]clue
Of [G7]what you want me to [C]do, [C/B]ohh-[A7]ohhh[D] [D7]
[---]  
So [G]Sadie, make a s[C]tand
If [G]only for another [C]weekend
The [G]stage is swept, the pr[C]op's all gone
And I'm [G]left here with nothing but this [C]cheap love song
Cuz [A7]Sadie..... [C]I..... I can never c[G]hange, yea[C]h
I can never ch[G]ange, yea[C]h
I can never ch[G]ange, yea[C]h
I can never ch[G]ange, yea[C]h
Yeah
Guitar solo:
[G] [C]  
 
 e|-----|----------------|-----------------|-----8------10------|
 B|-----|----------------|---------8b10-8--|--------------------|
 G|-----|----------------|-----------------|-7s9---9s10----10s12|
 D|-----|-------------5--|7b9r7-5----------|--------------------|
 A|-----|-----5---5-7---7|-----------------|--------------------|
 E|-10\-|-5s7---7--------|-----------------|--------------------|
 e|12--10b12r10---------------|-----3-----1-----|3-----5-----7s5~~------|
 B|-------------10b12r10--8\--|-----------------|-----------------------|
 G|---------------------------|-2s4---4s2---2s4-|--4s5---5s7------------|
 D|---------------------------|-----------------|-----------------------|
 A|---------------------------|-----------------|-----------------------|
 E|---------------------------|-----------------|-----------------------|

[---]  
F C*
For to change is to allow the plow
To [Eb]rearrange the [Bb]wreckage of our hea[Fm]rrrrr--earrr[C]rts
Our [Eb]heeeee[Bb]aaaaaaa[C]rts
[----]  
Last 3 chords:
[G] [F] [C]  
==============================================================
Notation Legend:
\ = slide down
s = slide to
b = bend
r = release
~ = vibrato
==============================================================

Important: The song above is NOT stored on the Chordie server. The original song is hosted at www.guitartabs.cc. Chordie works as a search engine and provides on-the-fly formatting. Chordie does not index songs against artists'/composers' will. To remove this song please click here.

Text color:
Chord color:
Chord grids: 
Font size:    
Page size: 

A7 Bb Bm7 C C/B D D7 E Eb F Fm G G7
Rate #1 of 2 versions

Jango Player

Login - add to songbook

SHARE PAGE  



You need to log in to post comments