Guitar Tabs, Chords and Lyrics
Update 25:10. 13:00. Site is back up running again. Songbooks are recovered. Woring on getting search back up..


I Still Remember  Bloc Party

 
 ----------------------------------------------------------------------------

I Still Remember - Bloc Party
 
 ----------------------------------------------------------------------------

Tabbed by: MiKi
Email: miki.ross@gmail.com
I managed to tabs this awesome song watching their acoustic set from Spinner.com and i
it\'s almost perfect, I\'d say this is what Russell actually plays. So enjoy it!
Chords:
EADGBe
D xx0232
Dsus2 xx0230
G6 320030 x55430
Asus4 x02230
Dsus2/B x20230
B x24432
[G]D5 [355433]x577xx
E5 x799xx
F#5 x91111xx
Em 022000
F#7 x44320
Tuning: Standard
Intro
 
 e|------5-------------5----------0-2-----------0-2--------------------------|
 B|---------8-7----------8-7------3---3~--------3---3~-----------------------|
 G|----7--------7----6-------7----2----- 2--2----2------2-------x2-----------|
 D|--0-------------0--------------0------0------0----------------------------|
 A|-------------------------------0-------------0----------------------------|
 E|-------------------------------3-------------3----------------------------|

[D]I.......[G6].....[Asus4].......[Dsus2/B]..[Dsus2]
[D]I still remember[G6] [Asus4] [Dsus2/B] [Dsus2]
[D]How you looked that afternoon[G6] [Asus4] [Dsus2/B] [Dsus2]
[D]There was only you[G6] [Asus4] [Dsus2/B] [Dsus2]
[D]You sai[G6]d \"[Asus4]it\'s ju[Dsus2/B]st like a f[Dsus2]ull moon\"[D]
[G6]Blood beats[Asus4] faster in[Dsus2/B] our veins[Dsus2]
[D]We lef[G6]t ou[Asus4]r trous[Dsus2/B]ers by the[Dsus2] canal[D]
[G6]And our fin[Asus4]gers, the[Dsus2/B]y almost to[Dsus2]uched
Chorus
[Dsus2]You should have asked me [B]for [G]it[D5]
[E5]I would have been b[F#5]rave[B] [G]
[D5]You shoul[E5]d have ask[F#5]ed me for [B]it[G]
[D5]How c[E5]ould I say[F#5] no?[B] [G] [D5]
[E5]And [F#5]our l[B]ove cou[G]ld have so[D5]ared
[E5]Over[F#5] play[B]ground[G]s and r[D5]ooftops
[E5]Eve[F#5]ry park[B] bench scr[G]eams your [D5]name
Em F#7 G6.......
I kept your tie
I\'d have gone wherever you wanted
 
 e|--------------------------------------------------------------------------|
 B|--0--2---3--5---2--3--5---7-----------------------------------------------|
 G|--2--2---2--4---2--2--4---6-----------------------------------------------|
 D|--2--0---0--0---0--0--0---0-----------------------------------------------|
 A|--------------------------------------------------------------------------|
 E|--------------------------------------------------------------------------|

Intro
(I still remember)
The rest is exactly the same, just get the correct timing for the voice and you\'ll get it.
And on that teachers\' training day
We wrote our names on every train
Laughed at the people off to work
So monochrome and so lukewarm
And I can see our days are becoming night
I could feel your heartbeat across the grass
We should have run, I would go with you anywhere
I should have kissed you by the water
You should have asked me for it?
And our love could have soared?
I\'d have let you if you asked me
I still remember

Important: The song above is NOT stored on the Chordie server. The original song is hosted at www.guitartabs.cc. Chordie works as a search engine and provides on-the-fly formatting. Chordie does not index songs against artists'/composers' will. To remove this song please click here.

Text color:
Chord color:
Chord grids: 
Font size:    
Page size: 

Asus4 B D D5 Dsus2 Dsus2/B E5 F#5 G G6
Rate #0 of 6 versions

Login - add to songbook

SHARE PAGE  



You need to log in to post comments