Guitar Tabs, Chords and Lyrics
Server problems seems to be fixed. Chordie has been experiencing problems with songs disappearing. These issues now seems to be fixed, but still verifying the fix. If you find anything strange, please email admin@chordie.com.


Natural High  Bloodstone

Wikipedia page:
http://en.wikipedia.org/wiki/Bloodstone_(band)
Allmusic Biography:
http://www.allmusic.com/cg/amg.dll?p=amg&sql=11:aifpxqw5ldde~T1
Artist: Bloodstone
Album: Natural High
Song: Natural High
Tabbed witmachine@yahoo.com
This is an old song from 1973 by the R&B rock/vocal group, Bloodstone.
Complete tablature for Guitar.
Feel out the time signature and tempo for the Intro.
3/4 time signature in verse and chorus
Lead guitar (Git.)
Rhythm guitar (Rh.)
Bass (Ba.)
Bell (Bl.)
chords used:
Bmaj7 X24342
B(VII) x99877
Am6add9 xx7677 (idk call it Dmaj7add6?)
A xx765x
Am xx755x
G x55433
G6 x5545x
Emaj7 x76444
INTRO
Bl. F# E D
Ba. B F# A E G D
Rh. B(VII) Bmaj7 Am6add9 A G G6
Git.
 
 e |-------------------------------------------------------------------|
 B |--14/16-14-12-------------12/14-12-10-------------10/12-10--8------|
 G |*--------------11~~~-------------------9~~~--------------------7---|
 D |*------------------------------------------------------------------|
 A |-------------------------------------------------------------------|
 E |-------------------------------------------------------------------|

Bl. F# |
Ba. F# F# E D C# B |
Rh. F# |
Git. Rh. |
 
 e |------------------------------|------------------------------7----||
 B |------------------------------|----------------------------7------||
 G |-----9--11-12-11-9-11~~~~---*-|--11---9---7---6----------8--------||
 D |----------------------------*-|------------------------9----------||
 A |------------------------------|----------------------9------------||
 E |------------------------------|--------------------7--------------||

VERSE (in 3/4)
Git. 1 + 2 + 3 + 1 + 2 + 3 + 1 + 2 + 3 + 1 + 2 + 3 +
 
 e |--------------------------------------------------------------------------|
 B |--------------------------------------------12----12----------------------|
 G |*-------------------------------11-13---14--------------------------------|
 D |*----------------------11-13-14-------------------------------------------|
 A |--------------------14----------------------------------------------------|
 E |--------------------------------------------------------------------------|

Rh. |
 
 e |--------------------------------------4-----------------4-----------------|
 B |------4-------------4-----------------------4-----------------4-----------|
 G |*---4---------------------------------------------4-----------------------|
 D |*-6-----------------------------------------------------------------------|
 A |--------------------------------------------------------------------------|
 E |--------------------------------------------------------------------------|

Ba. |
 
 G |--------------------------------------------------------------------------|
 D |*-------------------------------------9-----------------9-----------------|
 A |*-7-----------------7-----------------------------------------7-----8-----|
 E |--------------------------------------------------------------------------|

1. Why Do I Keep My Mind
2. Why Do I Feel This Way
Git.
 
 e |--------------------------------------------------------------------------|
 B |--------------12/14-14----12-------12-12----------------10----------------|
 G |--------------------------------------------------------------------------|
 D |--------------------------------------------------------------------------|
 A |--------------------------------------------------------------------------|
 E |--------------------------------------------------------------------------|

Rh. |
 
 e |--------------------------------------------------------------------------|
 B |--------------------------------------------------------------------------|
 G |--------6-----6-----6-----------------------8-----8-----8-----------------|
 D |--------7-----7-----7-----------------------7-----7-----7-----------------|
 A |--------7-----7-----7-----------------------6-----6-----6-----------------|
 E |--------------------------------------------------------------------------|

Ba. |
 
 G |--------------------------------------------------------------------------|
 D |--------------------------7h-9--------------9-----------------------------|
 A |--9-----------------9-----------------------------9-----8-----------8-----|
 E |--------------------------------7-----------------------------7-----------|

1. On You All The Time?
2. Thinking About You Every Day?
Git.
 
 e |--------------------------------------------------------7-----------------|
 B |--------------------------------------------------------------------------|
 G |--------------------------------------------------------------------------|
 D |--------------------------------------------------------------------------|
 A |--------------------------------------------------------------------------|
 E |--------------------------------------------------------------------------|

Rh. |
 
 e |--------------4-----4-----------------------------4-----------------------|
 B |-----------4--------------4-----------4-----------------4-----------4-----|
 G |--------4-----------------------4-----------------------------4-----------|
 D |-----6--------------------------------------------------------------------|
 A |--------------------------------------------------------------------------|
 E |--------------------------------------------------------------------------|

Ba. |
 
 G |--------------------------------------------------------------------------|
 D |--------------------------------------9-----------------9-----------9-----|
 A |--7-----------------7-----------------------------------------7-----------|
 E |--------------------------------------------------------------------------|

1. And I Don't Even Know You... (Don't
Git.
 
 e |--7-----------------------------------------------------------------------|
 B |--------------------------------------------7-----------------------------|
 G |-------------------------------------------------------------------------*|
 D |-------------------------------------------------------------------------*|
 A |--------------------------------------------------------------------------|
 E |--------------------------------------------------------------------------|

Rh. |
 
 e |--------------------4-----------------------------------4-----------------|
 B |--------------4-----------4-----------4-----------------------4-----------|
 G |--------4-----------------------4----------------------------------------*|
 D |--6----------------------------------------------------------------------*|
 A |--------------------------------------------------------------------------|
 E |--------------------------------------------------------------------------|

Ba. |
 
 G |--------------------------------------------------------------------------|
 D |--------------------------------------9-----------------------9----------*|
 A |--7-----------------7--------------------------------------7--------9----*|
 E |--------------------------------------------------------7-----------------|

1. Know You)
( Tab from: http://www.guitartabs.cc/tabs/b/bloodstone/natural_high_tab.html )
Git.
 
 e |--11----11----------11----------------------11----11----11----------------|
 B |-----12----12----------12----------------------12----------12-------------|
 G |--------------13----------13----------------------------------13----------|
 D |--------------------------------------------------------------------------|
 A |--------------------------------------------------------------------------|
 E |--------------------------------------------------------------------------|

Rh. |
 
 e |--------------------------------------4-----------------4-----------4-----|
 B |--------------------------------------4-----------------4-----------4-----|
 G |--------------------------------------4-----------------4-----------4-----|
 D |--------------------------------------6-----------------6-----------6-----|
 A |--------------------------------------7-----------------7-----------7-----|
 E |--------------------------------------------------------------------------|

Ba. |
 
 G |--------------------------------------------------------------------------|
 D |--------------------------------------9-----------------9-----------9-----|
 A |--7-----------------7-----------------------------------------7-----------|
 E |--------------------------------------------------------------------------|

2. And I Don't Even Know You... (Don't
Git.
 
 e |-------------------------------------------------------------------------||
 B |--------------------------9-----10----10/12~~~---------------------------||
 G |-------------------------------------------------------------------------||
 D |-------------------------------------------------------------------------||
 A |-------------------------------------------------------------------------||
 E |-------------------------------------------------------------------------||

Rh. ||
 
 e |--------------------4-----------------------------------4----------------||
 B |--------------4-----------4-----------4-----------------------4----------||
 G |--------4-----------------------4----------------------------------------||
 D |--6----------------------------------------------------------------------||
 A |-------------------------------------------------------------------------||
 E |-------------------------------------------------------------------------||

Ba. ||
 
 G |--------------------------------------9-----7----------------------------||
 D |--------------------------------------------------9-----8-----------8----||
 A |--7-----------------7-----------------------------------------7----------||
 E |-------------------------------------------------------------------------||

2. Know You) Take me in your
BRIDGE:
Git. 1 + 2 + 3 + 1 + 2 + 3 + 1 + 2 + 3 + 1 + 2 + 3 +
 
 e |--------------------------------------------------------------------------|
 B |--------------------------12/14-14----14----------------14-------------14-|
 G |--------------------------------------------------------------------------|
 D |--------------------------------------------------------------------------|
 A |--------------------------------------------------------------------------|
 E |--------------------------------------------------------------------------|

Rh. |
 
 e |--------------------------------------------------------------------------|
 B |--------------------5-----------------------------------5-----------------|
 G |--------------6-----------------------------------6-----------------------|
 D |--------7-----------------------------------7-----------------------------|
 A |--7-----------------------------------------------------------------------|
 E |--------------------------------------------------------------------------|

Ba. |
 
 G |--------------------------------------------------------------------------|
 D |--7-----------------7-----------------7-----------------7-----------7-----|
 A |--------------------------------7-----------------------------7-----------|
 E |--------------------------------------------------------------------------|

arms thrill me with all of your
Git.
 
 e |-------------------------------------------------------------------------||
 B |--14-12~~~----------------12s---14s---12---------------------------------||
 G |--------------------------------------------11s---13s---11~~~------------||
 D |-------------------------------------------------------------------------||
 A |-------------------------------------------------------------------------||
 E |-------------------------------------------------------------------------||

Rh. ||
 
 e |-------------------------------------------------------------------------||
 B |-------------------------------------------------------------------------||
 G |-------------------------------------------------------------------------||
 D |-------------------------------------------------------------------------||
 A |-------------------------------------------------------------------------||
 E |-------------------------------------------------------------------------||

Ba. ||
 
 G |-------------------------------------------------------------------------||
 D |--9-----------------------------------------------------9----------------||
 A |--------------------------------------------------------------9-----8----||
 E |-------------------------------------------------------------------------||

charms And I...
CHORUS:
Ba.
 
 G |--------------------------------------------------------------------------|
 D |--------------------------------------9-----------------9-----------------|
 A |--7-----------------7-----------------------------------------7-----8-----|
 E |--------------------------------------------------------------------------|

T[Emaj7]ake To The Sky On A Natural High
Ba.
 
 G |--------------------------------------------------7-----8-----9-----------|
 D |--------------------------7h-9--------------9-----------------------9-----|
 A |--9-----------------9-----------------------------------------------------|
 E |--------------------------------7-----------------------------------------|

L[A]oving You More 'Til Th[Am]e Day I Die
Ba.
 
 G |--------------------------------------------------------------------------|
 D |--------------------------------------9-----------------9-----------------|
 A |--7-----------------7-----------------------------------------7-----8-----|
 E |--------------------------------------------------------------------------|

T[Emaj7]ake To The Sky On A Natural High
Ba.
 
 G |--------------------------------------------------------------------------|
 D |--------------------------------------------------------------------------|
 A |--9-----------------9-----------------8~~~--------------------------------|
 E |--------------------------------------------------------------------------|

L[A]oving You M[Am]ore...
SOLO: (2:32)
Git. 1 + 2 + 3 + 1 + 2 + 3 + 1 + 2 + 3 + 1 + 2 + 3 +
 
 e ||---------------------------------------------10--11-12-------------------|
 B ||------------------------------------10s12--13-----------13-15--12-13-----|
 G ||-----------------------------11-12---------------------------------------|
 D ||------------------------12-14--------------------------------------------|
 A ||-------------------------------------------------------------------------|
 E ||-------------------------------------------------------------------------|

Ba. |
 
 G ||-------------------------------------------------------------------------|
 D ||-5------------------5-----------3-----5-----------------5----------------|
 A ||--------------------------5-----------------------------------5-----6----|
 E ||-------------------------------------------------------------------------|

Git.
 
 e |--------------7-7-7-7--8--10--10s12-12s10---------------------------------|
 B |--------------------------------------------------------------------------|
 G |--------------------------------------------------------------------------|
 D |--------------------------------------------------------------------------|
 A |--------------------------------------------------------------------------|
 E |--------------------------------------------------------------------------|

Ba. |
 
 G |--------------------------5-----7-----------7-----------------------------|
 D |--------------------7-----------------------------7-----------5-----------|
 A |--7-----------------------------------5-----------------5-----------5-----|
 E |--------------------------------------------------------------------------|

Git.
 
 e |--14-------14-------14----------19----19----------------20----------------|
 B |-----15-------15-------15-------------------------------------------------|
 G |--------------------------16----------------------------------------------|
 D |--------------------------------------------------------------------------|
 A |--------------------------------------------------------------------------|
 E |--------------------------------------------------------------------------|

Ba. |
 
 G |--------------------------------------------------------------------------|
 D |--------------------------------------5-----------------5-----------------|
 A |--------------------------------5--7--------------------------------------|
 E |--3-----------------3-----------------------------------------3-----4-----|

Git.
 
 e |--20/22-------------22\20-------------20\19------------------------------||
 B |--------------------------------------------------------13---------------||
 G |-------------------------------------------------------------------------||
 D |-------------------------------------------------------------------------||
 A |-------------------------------------------------------------------------||
 E |-------------------------------------------------------------------------||

Ba. ||
 
 G |-------------------------------------------------------------------------||
 D |-------------------------------------------------------------------------||
 A |-----------------------------------3--5-----5-----5-----6-----6-----6----||
 E |--5-----------------5----------------------------------------------------||

enjoy... comment back if you know what's good!

Important: The song above is NOT stored on the Chordie server. The original song is hosted at www.guitartabs.cc. Chordie works as a search engine and provides on-the-fly formatting. Chordie does not index songs against artists'/composers' will. To remove this song please click here.

Text color:
Chord color:
Chord grids: 
Font size:    
Page size: 

A Am Emaj7
Rate #1 of 2 versions

Jango Player

Login - add to songbook

SHARE PAGE  




You need to log in to post comments