Guitar Tabs, Chords and Lyrics
Major upgrade!! After one year development the new version of Chordie is now online! Please give feedback.


Lost Together  Blue Rodeo

As with my other tabs, where you see an "A", play the tenth fret on that
string, "B" is the 11th, "C" the twelfth, and so on. This was done to try to
keep the rhythm linear in the tabs for those like me that find other tabs
hard to follow sometimes.
[INTRO] 
[G] [D] [Em] [D] [G] [D] [Em] [Em]  
 
 G:--------|--------|--------|--------|--------|--------|--------|--------|
 D:5-5-5-5-|4-4-4-4-|--------|--------|5-5-5-5-|4-4-4-4-|--------|--------|
 A:--------|--------|7-7-7-7-|5-5-5-5-|--------|--------|7-7-7-7-|7-7-7-7-|
 E:--------|--------|--------|--------|--------|--------|--------|--------|

[VERSE] 
[G] Strange and [D]beautiful are the [Em]stars [D]tonight
[G] That [D]dance around your [Em]head[Em]
[G] In your [D]eyes I see that [Em] perfect [D]world
[G] I hope that [D]doesn't sound too [Em]weird[Em]
[G] [D] [Em] [D] [G] [D] [Em] [Em]  
 
 G:--------|--------|--------|--------|--------|--------|--------|--------|
 D:5-5-5-5-|4-4-4-4-|--------|--------|5-5-5-5-|4-4-4-4-|--------|--------|
 A:--------|--------|7-7-7-7-|5-5-5-5-|--------|--------|7-7-7-7-|7-7-7-7-|
 E:--------|--------|--------|--------|--------|--------|--------|--------|

[G] [D] [Em] [D] [G] [D] [Em] [Em]  
 
 G:--------|--------|--------|--------|--------|--------|--------|--------|
 D:5-5-5-5-|4-4-4-4-|--------|--------|5-5-5-5-|4-4-4-4-|--------|--------|
 A:--------|--------|7-7-7-7-|5-5-5-5-|--------|--------|7-7-7-7-|7-7-7-7-|
 E:--------|--------|--------|--------|--------|--------|--------|--------|

[BRIDGE] 
[C] And [C]I want all the [D]world to [D]kn[-]ow[G] [G] [G]
[C] That [D]your love's all I [Em]need [Em]All that I [D]need[D/C] [D/B] [D/A]
[C] [C] [D] [D] [G] [G] [G] [C] [D] [Em] [Em]  
 
 G:--------|--------|--------|--------|--------|--------|--------|--------|
 D:--------|--------|--------|--------|--------|--------|--------|--------|
 A:--------|--------|--------|--A-A-A-|--------|--------|7-7-7-7-|7-7-7-7-|
 E:8-8-8-8-|8-8-8-8-|A-A-A-A-|A-------|8-8-8-8-|A-A-A-A-|--------|--------|

[D] [D/C] [D/B] [D/A]  
 
 G:--------|--------|--------|--------|
 D:--------|--------|--------|--------|
 A:--------|--------|--------|----5-5-|
 E:A-A-A-A-|8-8-8-8-|7-7-7-7-|5-5-----|

[CBORUS] 
And if we're [G]lost [D] [Em] Then [C]we are lost to[D]gether
Yeah if we're [G]lost [D] [Em] Then [C]we are lost to[D]gether
[G] [D] [Em] [C] [D] [D] [D] [D]  
 
 G:--------|--------|--------|--------|--------|--------|--------|7-------|
 D:------5-|4-------|2-------|--------|--------|--4-7---|------57|--7-----|
 A:-------5|----5---|------02|3-----3//5---5-5-|5-------|5---5---|----5---|
 E:3-------|--------|--------|--------|--------|------5-|--------|------5-|

[G] [D] [Em] [C] [D] [D] [D] [D]  
 
 G:--------|--------|--------|--------|--------|--------|--------|--------|
 D:5-----5-|4-------|2-------|--------|--------|57------|--------|--7-----|
 A:-------5|----5---|------02|3-----3//5-----5-|--------|5---5---|5---5---|
 E:--------|--------|--------|--------|--------|--5-7-5-|--------|------5-|

[VERSE] 
[G] I stand [D]before this[Em] faceless [D]crowd [G] and wonder [D]why I [Em]bother[Em]
[G] So much con[D]trolled [Em] by so [D]few stumbling [G]from one dis[D]aster to a[Em]nother[Em]
[G] [D] [Em] [D] [G] [D] [Em] [Em]  
 
 G:--------|--------|--------|--------|--------|--------|--------|--------|
 D:5-5-5-5-|4-4-4-4-|--------|--------|5-5-5-5-|4-4-4-4-|--------|--------|
 A:--------|--------|7-7-7-7-|5-5-5-5-|--------|--------|7-7-7-7-|7-7-7-7-|
 E:--------|--------|--------|--------|--------|--------|--------|--------|

[G] [D] [Em] [D] [G] [D] [Em] [Em]  
 
 G:--------|--------|--------|--------|--------|--------|--------|--------|
 D:5-5-5-5-|4-4-4-4-|--------|--------|5-5-5-5-|4-4-4-4-|--------|--------|
 A:--------|--------|7-7-7-7-|5-5-5-5-|--------|--------|7-7-7-7-|7-7-7-7-|
 E:--------|--------|--------|--------|--------|--------|--------|--------|

[BRIDGE] 
[C]I've heard it [C]all so many [D]times be[D]fo[-]re[G] [G] [G]
[C] It's all a [D]dream to me [Em]now a [Em]dream to me [D]now[D/C] [D/B] [D/A]
(Dream to me now)
[C] [C] [D] [D] [G] [G] [G] [C] [D] [Em] [Em]  
 
 G:--------|--------|--------|--------|--------|--------|--------|--------|
 D:--------|--------|--------|--------|--------|--------|--------|--------|
 A:--------|--------|--------|--A-A-A-|--------|--------|7-7-7-7-|7-7-7-7-|
 E:8-8-8-8-|8-8-8-8-|A-A-A-A-|A-------|8-8-8-8-|A-A-A-A-|--------|--------|

[D] [D/C] [D/B] [D/A]  
 
 G:--------|--------|--------|--------|
 D:--------|--------|--------|--------|
 A:--------|--------|--------|----5-5-|
 E:A-A-A-A-|8-8-8-8-|7-7-7-7-|5-5-----|

[CBORUS] 
And if we're [G]lost [D] [Em] Then [C]we are lost to[D]gether
Yeah if we're [G]lost [D] [Em] Then [C]we are lost to[D]gether
[G] [D] [Em] [C] [D] [D] [D] [D]  
 
 G:--------|--------|--------|--------|--------|--------|--------|7-------|
 D:5---5-5-|4-------|2---2---|--------|--------|47------|------57|----7---|
 A:-------5|----5---|------02|3-----3//5---5---|--------|5---5---|--------|
 E:--------|--------|--------|--------|--------|--5-7-5-|--------|--------|

[G] [D] [Em] [C] [D] [D] [D] [D]  
 
 G:--------|--------|--------|--------|--------|------4-|7---7---|7--------|
 D:5-----5-|4-------|2-------|--------|--------|-4747---|--------|-7-------|
 A:-------5|----5---|------02|3-----37|5---5---|5-------|--------|--75-5---|
 E:--------|--------|--------|--------|--------|--------|--------|---------|

~3~
[INSTRUMENTAL] 
[C] [C] [D] [D] [G] [G] [G] [C] [D] [Em] [Em]  
 
 G:--------|--------|--------|--------|--------|--------|--------|--------|
 D:--------|--------|--------|--------|--------|--------|--------|--------|
 A:--------|--------|--------|--A-A-A-|--------|--------|7-7-7-7-|7-7-7-7-|
 E:8-8-8-8-|8-8-8-8-|A-A-A-A-|A-------|8-8-8-8-|A-A-A-A-|--------|--------|

[D] [D/C] [D/B] [D/A] [G] [G]  
 
 G:--------|--------|--------|--------|--------|--------|
 D:--------|--------|--------|--------|--------|--------|
 A:--------|--------|--------|----5-5-|--------|--------|
 E:A-A-A-A-|8-8-8-8-|7-7-7-7-|5-5-----|3~~~~~~~~~~~~~~~~|

[VERSE] 
[G] In the [D]silence of this [Em] whispered [D]night [G] I listen [D]only to your [Em]breath[Em]
[G] And in that [D]second of a [Em] shooting [D]star Some[G]how it [D]all makes [Em]sense[Em]
[G] [D] [Em] [D] [G] [D] [Em] [Em]  
 
 G:--------|--------|--------|--------|--------|--------|--------|--------|
 D:5-5-5-5-|4-4-4-4-|--------|--------|5-5-5-5-|4-4-4-4-|--------|--------|
 A:--------|--------|7-7-7-7-|5-5-5-5-|--------|--------|7-7-7-7-|7-7-7-7-|
 E:--------|--------|--------|--------|--------|--------|--------|--------|

[G] [D] [Em] [D] [G] [D] [Em] [Em]  
 
 G:--------|--------|--------|--------|--------|--------|--------|--------|
 D:5-5-5-5-|4-4-4-4-|--------|--------|5-5-5-5-|4-4-4-4-|--------|--------|
 A:--------|--------|7-7-7-7-|5-5-5-5-|--------|--------|7-7-7-7-|7-7-7-7-|
 E:--------|--------|--------|--------|--------|--------|--------|--------|

[BRIDGE] 
[C] And [C]I want all the [D]world to [D]kn[-]ow[G] [G] [G]
[C] That [D]your love's all I [Em]need [Em]All that I [D]need[D/C] [D/B] [D/A]
(All that I need)
[C] [C] [D] [D] [G] [G] [G] [C] [D] [Em] [Em]  
 
 G:--------|--------|--------|--------|--------|--------|--------|--------|
 D:--------|--------|--------|--------|--------|--------|--------|--------|
 A:--------|--------|--------|--A-A-A-|--------|--------|7-7-7-7-|7-7-7-7-|
 E:8-8-8-8-|8-8-8-8-|A-A-A-A-|A-------|8-8-8-8-|A-A-A-A-|--------|--------|

[D] [D/C] [D/B] [D/A]  
 
 G:--------|--------|--------|--------|
 D:--------|--------|--------|--------|
 A:--------|--------|--------|----5-5-|
 E:A-A-A-A-|8-8-8-8-|7-7-7-7-|5-5-----|

[CBORUS] 
And if we're [G]lost [D] [Em] Then [C]we are lost to[D]gether
Yeah if we're [G]lost [D] [Em] Then [C]we are lost to[D]gether
[G] [D] [Em] [C] [D] [D] [D] [D]  
 
 G:--------|--------|--------|--------|--------|--------|--------|--------|
 D:------5-|4-------|2---2---|--------|--------|--------|-------5|7-------|
 A:-------5|----5---|------2-|3-----3//5-----57|------7-|5---5-7-|--7-5---|
 E:3---3---|--------|--------|--------|--------|5-7-57--|--------|--------|

[G] [D] [Em] [C] [D] [D] [D] [D]  
 
 G:--------|--------|--------|--------|--------|--------|--------|--------|
 D:5-----5-|4-------|2---2---|--------|--------|--------|---57---|7-------|
 A:-------5|----5---|------02|3-----3//5---5---|5-------|5-7-----|--7-----|
 E:--------|--------|--------|--------|--------|--5-757-|--------|----5---|

[CODA] 
[G] [D] [Em] [C] [D] [D] [D] [D]  
 
 G:--------|--------|--------|5-------|--------|------4-|7---7-7-|7-------|
 D:------5-|4-------|2---2-25|----5---|--------|4-7-7---|--------|--7-----|
 A:-------5|----5---|-----2--|--------|5---5-5-|--------|--------|----5---|
 E:3-------|--------|--------|--------|--------|--------|--------|------5-|

[G] [D] [Em] [C] [D] [D] [D] [D]  
 
 G:--------|----7---|--------|5---5---|--------|------5-|7---7---|7-------|
 D:5---5---|4-----4-|--------|--------|--------|--5-7---|--------|--7-----|
 A:--------|--------|7-7-979-|--------|5---5-50|5-------|--------|----5---|
 E:--------|--------|--------|--------|--------|--------|--------|------5-|

And if we're [G]lost [D] [Em] Then [C]we are lost to[D]gether
Yeah if we're [G]lost [D] [Em] Then [C]we are lost to[D]gether Together Together
[G] [D] [Em] [C] [D] [D] [D] [D]  
 
 G:--------|--------|--------|--------|--------|--------|--------|--------|
 D:5-----5-|4-------|--------|--------|--------|--------|---57---|7-------|
 A:-------5|----5---|7---7-7-|------7-|5---5-57|--------|5-7-----|--7-5---|
 E:--------|--------|--------|8---8---|--------|5-7-757-|--------|------5-|

[G] [D] [Em] [C] [D] [D] [D] [D]  
 
 G:--------|----7---|--------|--------|--------|--------|--------|--------|
 D:5-----5-|4-----7-|------7-|--------|------5-|7---4---|------5-|7-5-----|
 A:-------5|--------|7------7|--------|5---57-5|------7-|5---57--|----7---|
 E:--------|--------|--------|8-----8-|--------|--------|--------|--------|

[G] [D] [Em] [D] [G] [D] [Em] [Em]  
 
 G:--------|--------|--------|--------|------C-|B-------|--------|--------|
 D:--------|--------|--------|--------|-----C-C|----C---|--------|--------|
 A:A-------|9-------|--------|--------|A-------|--------|--------|--------|
 E:--------|--------|C-------|A-------|--------|--------|C~~~~~~~~~~~~~~~~|

Tabbed by Michael Oxner
moxner@nbnet.nb.ca
August 20, 2012

Important: The song above is NOT stored on the Chordie server. The original song is hosted at www.guitartabs.cc. Chordie works as a search engine and provides on-the-fly formatting. Chordie does not index songs against artists'/composers' will. To remove this song please click here.

Text color:
Chord color:
Chord grids: 
Font size:    
Page size: 

C D D/B D/C Em G
Rate #1 of 11 versions

Jango Player

Login - add to songbook

SHARE PAGE  



You need to log in to post comments