Guitar Tabs, Chords and Lyrics
Server problems seems to be fixed. Chordie has been experiencing problems with songs disappearing. These issues now seems to be fixed, but still verifying the fix. If you find anything strange, please email admin@chordie.com.


Just Wait  Blues Traveler

Blues Traveler - Four - Just Wait - 1994
Tabbed by: Kyle
E-mail: xx_dark_xx@hotmail.com
Tuning: Standard
Key:
V: Downward Strum
^: Upward Strum
Note: #1. DS = Dsus4


-VERSE-
[C]If you are [G]feeling like you're [D]tired[D] [Dsus4] [D] [Dsus4] [D]
[C]And all your [G]uphill struggles leave [F]headed downhill[F]
[C]If you realize your [G]wildest dreams can [D]hurt you[D] [Dsus4] [D] [Dsus4] [D]
[C]And you appetite for [G]pain has [F]drinken its fill[F]
C G D DS D DS D DS D
V V^V^V V^V^V V^V^ V ^ V ^ V
 
 e|---0--00003--33332--2223--2--3--2--3--2--------------------------------|
 B|---1--11110--00003--3333--3--3--3--3--3--------------------------------|
 G|---0--00000--00002--2222--2--2--2--2--2--------------------------------|
 D|---2--22220--00000--0000--0-----0-----0--------------------------------|
 A|---3--33332--2222------------------------------------------------------|
 E|----------3--3333------------------------------------------------------|

[C]V V^V^[G]V V^V^[F]V ^^V V^
 
 e|---0--00003--33331--111-11---------------------------------------------|
 B|---1--11110--00001--111-11---------------------------------------------|
 G|---0--00000--00002--222-22---------------------------------------------|
 D|---2--22220--00003--333-33---------------------------------------------|
 A|---3--33332--2222------------------------------------------------------|
 E|----------3--3333------------------------------------------------------|

[C]I ask of yo[G]u a very simple ques[D]tion[D] [Dsus4] [D] [Dsus4] [D]
[C]Did you think for one[G] minute t[F]hat you are alone[F]
[C]And is your[G] suffering a privile[D]ge you [D]sh[Dsus4]are on[D]ly[Dsus4] [D]
[C]Or did you think that[G] everybod[F]y else feels comp[F]letely at home
-CHORUS-
[AM]Just[(Asus] wait[-] [AM] [-] [AM9] [-] [AM)]
[C]Just wait
[G]Just wait
[D]And [(Dsus]it wil[-]l [D]co[-]me[D9] [-] [D)]
AM (A's ) C G D (D's)
V V(V^V^)V V V^V^ V V V^V^ V V V^V^
 
 e|---0--0-0000-0--0--0000-3--3-3333-2--2-3202----------------------|
 B|---1--1-3101-1--1--1111-0--0-0000-3--3-3333----------------------|
 G|---2--2-2222-0--0--0000-0--0-0000-2--2-2222----------------------|
 D|---2--2-2222-2--2--2222-0--0-0000-0--0-0000----------------------|
 A|---0--0-0000-3--3--3333-2--2-2222--------------------------------|
 E|------------------------3--3-3333--------------------------------|

-VERSE-
[C]If think I'[G]ve given up on your [D]you're [D]cr[Dsus4]azy[D] [Dsus4] [D]
[C]And if you think I do[G]n't love [F]you well then you[F]'re just wrong
[C]In time you[G] just might take to [D]feeling[D] b[Dsus4]etter[D] [Dsus4] [D]
[C]Time is the beauty of[G] the road[F] being long[F]
[C]I know that[G] now you feel no con[D]solatio[D]n[Dsus4] [D] [Dsus4] [D]
[C]But maybe if I told y[G]ou and in[F]formed you out lo[F]ud
[C]I say this [G]without fear of hesi[D]tation[D] [Dsus4] [D] [Dsus4] [D]
[C]I can honestly tell y[G]ou that y[F]ou make me proud[F]
-CHORUS-
[AM]Just[(Asus] wait[-] [AM] [-] [AM9] [-] [AM)]
[C]Just wait
[G]Just wait
[D]And [(Dsus]it wil[-]l [D]co[-]me[D9] [-] [D)]
[AM]Just[(Asus] wait[-] [AM] [-] [AM9] [-] [AM)]
[C]Just wait
[G]Just wait
[D]And [(Dsus]it wil[-]l [D]co[-]me[D9] [-] [D)]
-SOLO-
** I'll tab this later, or untill some one asks for it **
-VERSE-
[C]If anything[G] I might have just s[D]aid has[D] h[Dsus4]elped [D]yo[Dsus4]u[D]
[C]If anything I might h[G]ave just [F]said has just hel[F]ped you carry on
[C]Your rise u[G]phill may no longer [D]seem a [D]st[Dsus4]ruggle[D] [Dsus4] [D]
[C]And your appetite for[G] pain may[F] all be gone[F]
[C]I hope for [G]you and cannot stop [D]hoping[D] [Dsus4] [D] [Dsus4] [D]
[C]Until that smile has [G]once agai[F]n returned to you[F]r face
[C]There's no [G]such thing as a fai[D]lure wh[D]o [Dsus4]keeps [D]on[Dsus4] tryin[D]g
[C]coasting to the botto[G]m is the [F]only disgrace[F]
-CHORUS-
[AM]Just[(Asus] wait[-] [AM] [-] [AM9] [-] [AM)]
[C]Just wait
[G]Just wait
[D]And [(Dsus]it wil[-]l [D]co[-]me[D9] [-] [D)]
[AM]Just[(Asus] wait[-] [AM] [-] [AM9] [-] [AM)]
[C]Just wait
[G]Just wait
[D]And [(Dsus]it wil[-]l [D]co[-]me[D9] [-] [D)]
[AM]Just[(Asus] wait[-] [AM] [-] [AM9] [-] [AM)]
[C]Just wait
[G]Just wait
[D]And [(Dsus]it wil[-]l [D]co[-]me[D9] [-] [D)]

Important: The song above is NOT stored on the Chordie server. The original song is hosted at www.guitartabs.cc. Chordie works as a search engine and provides on-the-fly formatting. Chordie does not index songs against artists'/composers' will. To remove this song please click here.

Text color:
Chord color:
Chord grids: 
Font size:    
Page size: 

Am Am9 C D D9 Dsus4 F G
Rate #0 of 9 versions

Jango Player

Login - add to songbook

SHARE PAGE  



You need to log in to post comments