Guitar Tabs, Chords and Lyrics
Server problems seems to be fixed. Chordie has been experiencing problems with songs disappearing. These issues now seems to be fixed, but still verifying the fix. If you find anything strange, please email admin@chordie.com.


Aire  Bohemia Suburbana

 
 ---AIRE---

(BOHEMIA SUBURBANA)
* = b (bend) = Tocar una nota en cierto espacio y tirar la cuerda
* *
 
 e|---0-3-3/5-5-5-5-5-----------------|-0-3-3/5-5-5-5-5-----------------|
 B|-------------------5----------*----|-----------------5---------------|
 G|----------------------2-2-2-2-2-2-2|-------------------2-2-2-2-2-----|
 D|-----------------------------------|---------------------------------|
 A|-----------------------------------|---------------------------------|
 E|-----------------------------------|---------------------------------|
 e|-3-/5-5-5-3--|----------------------|
 B|-------------|----------------------|
 G|-------------|----------------------|
 D|-------------|----------------------|
 A|-------------|----------------------|
 E|-------------|----------------------|

NOTA:SI SE HA OIDO LA CANCION SE SABE DONDE VAN LOS PUNTEOS.
[G]HOY NO QUIERO PLATICAR CONT[D]IGO
[Am]SOLAMENTE VERTE ACTUAR CONM[Cm]IGO
[G]SI MASTICARAS DE UN FRUTO[D] PROHIBIDO
[Am]QUE ESTA, MUY POD[Cm]RIDO
[G]TALVEZ PODRIAS DEC[D]IRME TU
[G]COMO PODRIA UN SER H[Gm]UMANO VIVIR [Dm]
EN COMPLETA SO[G]LEDAD,S[Gm]OLEDAD[Dm]
[G]SABES QUIEN PODRIA D[Gm]ECIRME[Dm]
[G]COMO PODRIA YO EXIST[Gm]IR SI YA NO E[Dm]STA
MI LIBER[G]TAD,MI LIBERTAD, MI LIB[Gm]ERTAD,MI LIBE[Dm]RTAD...
[G] [Gm] [Dm]  
[G] [Gm] [Dm]  
[G]( Tab from: https://[Gm]www.guitartab[Dm]s.cc/tabs/b/bohemia_suburbana/aire_tab.html )
[C]BUSCANDO ALGO QUE ME [Gm]LLEV[Dm]E
[C]SI EL AGUA CAE ES PORQUE[Gm] LLU[Dm]EVE
[C]QUIERO SEGUIR BUSCANDO
[Gm]QUIERO SEG[Dm]UIR BUSCANDO
[C]Y NO,SEN[Gm]TIRME M[Dm]AL...
[G] [D] [Am] [Cm]  
[G] [D] [Am] [Cm]  
A[G]IRE,ME FALTA EL[D] AIRE
M[Am]IEDO,ME SOBRA EL [Cm]MIEDO
AI[G]RE,ME FALTA EL [D]AIRE
MI[Am]EDO,ME SOBRA EL [Cm]MIEDO
AI[G]RE,ME FALTA EL[D] AIRE
MI[Am]EDO,ME SOBRA EL [Cm]MIEDO
PARA [G]RESPIRAR,
PARA [D]PODER LUCHAR,
Y PARA [Am]RESPIRAR,
PARA P[Cm]ODER LUCHAR
AIRE,ME FALTA EL AIRE
M[Am]IEDO,ME SOBRA EL [Cm]MIEDO
AI[G]RE,ME FALTA EL [D]AIRE
MI[Am]EDO,ME SOBRA EL [Cm]MIEDO
AI[G]RE,ME FALTA EL[D] AIRE
MI[Am]EDO,ME SOBRA EL [Cm]MIEDO
PARA [G]RESPIRAR,
PARA [Gm]PODER LUC[Dm]HAR
PARA R[G]ESPIRAR,
PARA [Gm]PODER [Dm]LUCHAR
AI[G]RE,ME FALTA EL[Gm] AIRE[Dm]
M[G]IEDO,ME SOBRA EL[Gm] MIE[Dm]DO
PARA [G]RESPIRAR,
PARA [Gm]PODER LUC[Dm]HAR
Y PARA[G] RESPIRAR,
PARA RESPIRAR
Y PARA[Gm] RESPIRAR
PARA [Dm]PODER LUCHAR...
A[Gm]IRE,A,A,A,[Dm]A,AIRE......
A[G]AAH,AAAAAH,[Gm]AAAAH..[Dm]......
POR: M-B
 
 ----------


Important: The song above is NOT stored on the Chordie server. The original song is hosted at www.guitartabs.cc. Chordie works as a search engine and provides on-the-fly formatting. Chordie does not index songs against artists'/composers' will. To remove this song please click here.

Text color:
Chord color:
Chord grids: 
Font size:    
Page size: 

Am C Cm D Dm G Gm
Rate #1 of 1 versions

Jango Player

Login - add to songbook

SHARE PAGE  




You need to log in to post comments