Guitar Tabs, Chords and Lyrics
Update 25:10. 13:00. Site is back up running again. Songbooks are recovered. Woring on getting search back up..


What Does It Mean  Bombadil

Intro:
[F] [C]  
What does it [F]mean
when you stay [C]silen[Bb]t?
Is that just [F]shyness or [Bb]have you imp[F]lied
that its the [Bb]end of our [F]li[C]fe
[C]Together baby you were meant for me
but [Bbm]maybe I act differently
from how you [Bb]expected me to be
[F]Oo oo oo [C]oo oo oo [F]oo oo oo oo [C]oo
What does it [F]mean
when you [C]cry[Bb]?
When I desc[F]ribe how your [Bb]root beer e[F]yes
Stab me with [Bm]little tiny [F]knives of longing in my [C]mind.
It [F]seems there could be [C]two expla[Bb]nations
They could be j[F]oyful tears or [Bb]they could em[F]ploy your fears
Of [Bb]facing the sha[F]me of saying youd rather he be [C]here
Together baby you were meant for me
But m[Bbm]aybe I act differently
from how you e[Bb]xpected me to be
[F]Oo oo oo [C]oo oo oo [F]oo oo oo oo [C]oo
 
 ------------------------|
 ------3----3------------|
 ---3-----3------0-----0-|
 -3-----3------2-----2---|
 ------------3-----3-----|
 ------------------------|
 ------------------------|
 ------1----1-----1----1-|
 ---2-----2-----2----2---|
 -3-----3-----4----4-----|
 ------------------------|
 ------------------------| 

You came on to me, so I went to you
( Tab from: http://www.guitartabs.cc/tabs/b/bombadil/what_does_it_mean_crd.html )
 
 ------------------------|
 ----------3-------------|
 -----3----------3----3--|
 -5-----5-----5----5-----|
 ---5-----5-----7----7---|
 ------------------------|

But if I knew then that Id still be this into you
 
 ------------------------|
 ------------------------|
 ------1----1-----3----1-|
 ---2-----2-----3----2---|
 -3-----3-----3----3-----|
 ------------------------|

Would I have been so unkind to you? Taken your
 
 ------------------------|
 ------3----3-----3----3-|
 ---3-----3-----3----3---|
 -3-----3-----3----3-----|
 ------------------------|
 ------------------------|

time from you? I dont think so. I dont
 
 ------------------------|
 ------1----1-----3----3-|
 ---2-----2-----3----3---|
 -3-----3-----3----3-----|
 ------------------------|
 ------------------------|

know But I dont think so
(humming to chords)
[F] [C] [Bb] [Bb] [F] [Bb] [F] [Bb] [F] [C]  
What does it [F]mean
When you say, [C]Ok, good-[Bb]bye?
After I [F]say, I l[Bb]ove you 1 m[F]illion times
[Bb]Into the [F]phone line when [Bb]each little [F]chat has di[C]ed
Why does it f[F]eel
like youve got [C]eye[Bb]s for arms?
Oh yeah, its [F]cool girl
Yeah Im [Bb]busy t[F]oo girl
Well t[Bb]ouch base s[F]oon sure
But I [Bb]really got a ton of [F]work to do[C]
Alone, well [C]baby you were meant for me
But [Bbm]maybe I act differently
from h[Bb]ow you expected me to be
And [C]baby we were meant to be
But [Bbm]maybe we are not the same as
Ho[Bb]w you envisioned we would be
And b[C]aby you mean to everything to me
But I[Bbm] have seen the reasons now
And[Bb] I think you should probably
[F]Oo oo oo [C]oo oo oo [F]oo oo oo oo [C]oo X2
[F]  

Important: The song above is NOT stored on the Chordie server. The original song is hosted at www.guitartabs.cc. Chordie works as a search engine and provides on-the-fly formatting. Chordie does not index songs against artists'/composers' will. To remove this song please click here.

Text color:
Chord color:
Chord grids: 
Font size:    
Page size: 

Bb Bbm Bm C F
Rate #1 of 2 versions

Login - add to songbook

SHARE PAGE  



You need to log in to post comments