Guitar Tabs, Chords and Lyrics
Major upgrade!! After one year development the new version of Chordie is now online! Please give feedback.


Lump Sum   Bon Iver

 
 D|-----------------|-----------------|-0-----0-0-----0-|-0---------------|----------------|
 A|-----------------|-----------------|-0-----0-0-----0-|-0---------------|----------------|
 F#|-3---------------|-2---------------|-0-----2-0-----2-|-0--(pause)------|----------------|
 D|-2---------------|-2---------------|-0-----0-0-----0-|-0---------------|----------------|
 A|-0---------------|-----------------|-0-----0-0-----0-|-0---------------|----------------|
 D|-----------------|-2---------------|-0-----0-0-----0-|-0---------------|----------------|

 


 [1] [+] [2] [+] [3] [+] [4] [+] [1] [+] [2] [+] [3] [+] [4] [+] [1] [+] [2] [+] [3] [+] [4] [+] [1] [+] [2] [+] [3] [+] [4] [+] [1] [+] [2] [+] [3] [+] [4] [+] 


 verse


 

 
 ||-------------------|-----------------|-----------------|-----------------|
 ||o------------------|-----------------|-----------------|-----------------|
 ||---3---------------|-----------------|-3---------------|-----------------|
 ||---2---------------|-----------------|-2---------------|-----------------|
 ||o--0---------------|-----------------|-----------------|-----------------|
 ||-------------------|-----------------|-4---------------|-----------------|

 


 1. [1] [+] [2]So[+]ld[3] m[+]y [4]co[+]ld..[1]. [+] [2] [+] [3] [+] [4] [+] [1]kn[+]ot[2] [+] [3] [+] [4] [+] [1] [+] [2] [+] a[3] h[+]ea[4]vy[+]


 Sold my red horse for a venture


 2. My mil e could not Pump the


 In my arbor 'til my ardor


 ( Tab from: http://www.guitartabs.cc/tabs/b/bon_iver/lump_sum_tab.html )


 

 
 |-----------------|-----------------|-----------------|-----------------||
 |-----------------|-----------------|-----------------|----------------o||
 |-3---------------|-----------------|-2---------------|-----------------||
 |-2---------------|-----------------|-2---------------|-----------------||
 |-----------------|-----------------|-----------------|----------------o||
 |-2---------------|-----------------|-2---------------|-----------------||

 


 [1]st[+]on[2]e[+] [3] [+] [4] [+] [1] [+] [2] [+] [3] [+] [4] [+] [1] [+] [2] [+] [3] [+] [4] [+] [1] [+] [2] [+] [3] [+] [4] [+]


 home To vanish on the bow settling in slow


 plumb


 trumped every inner inertia lump sum


 chorus


 

 
 ||-------------------|-----------------|-----------------|-----------------|
 ||o------------------|-----------------|-----------------|-----------------|
 ||---7---------------|-----------------|-8---------------|-----------------|
 ||---7---------------|-----------------|-7---------------|-----------------|
 ||o--0---------------|-----------------|-0---------------|-----------------|
 ||---0---------------|-----------------|-0---------------|-----------------|

 


 1. [1] [+] [2] [+] [3] [+] [4] [+] [1] [+] [2] [+] [3] [+] F[4]it[+] it [1]al[+]l,[2] [+] [3] [+] [4] [+] fi[1]t [+]it[2] i[+]n [3]th[+]e [4]do[+]ldrums


 Color the era Film it its historic-


 2. All at once Rushing from the sump-pump


 Balance we won't know We will see when it gets


 


 

 
 |-----------------|-----------------|-----------------|-----------------||
 |-----------------|-----------------|-----------------|----------------o||
 |-5---------------|-----------------|-----------------|-----------------||
 |-7---------------|-----------------|-----------------|-----------------||
 |-4---------------|-----------------|-----------------|----------------o||
 |-4---------------|-----------------|-----------------|-----------------||

 


 [1] [+] [2] [+] [3] [+] [4] [+] [1] [+] [2] [+] [3] [+] [4] [+] [1]Or[+] s[2]o [+]th[3]e [+]st[4]or[+]y go[1]es[+] [2] [+] [3] [+] [4] [+]


 -al


 Or so the story goes


 warm


 


 interlude x3


 

 
 |-----------------|-----------------||---0-----0-0-----0--||-0---------------|
 |-----------------|-----------------||o--0-----0-0-----0-o||-0---------------|
 |-5---------------|-----------------||---0-----2-0-----2--||-0---------------|
 |-7---------------|-----------------||---0-----0-0-----0--||-0---------------|
 |-4---------------|-----------------||o--0-----0-0-----0-o||-0---------------|
 |-4---------------|-----------------||---0-----0-0-----0--||-0---------------|

 


 [1] [+] [2] [+] [3] [+] [4] [+] [1] [+] [2] [+] [3] [+] [4] [+] [1] [+] [2] [+] [3] [+] [4] [+] [1] [+] [2] [+] [3] [+] [4] [+] 


 outro x17


 

 
 |-----------------|-----------------||---0----------------||
 |-----------------|-----------------||o--0---------------o||
 |-5---------------|-----------------||---0----------------||
 |-7---------------|-----------------||---0----------------||
 |-4---------------|-----------------||o--0---------------o||
 |-4---------------|-----------------||---0----------------||


Important: The song above is NOT stored on the Chordie server. The original song is hosted at www.guitartabs.cc. Chordie works as a search engine and provides on-the-fly formatting. Chordie does not index songs against artists'/composers' will. To remove this song please click here.

This song is displayed as text-only. Transposing and tuning is only available for chordpro-songs.
Rate #1 of 12 versions

Jango Player

Login - add to songbook

SHARE PAGE  




You need to log in to post comments