Guitar Tabs, Chords and Lyrics
Major upgrade!! After one year development the new version of Chordie is now online! Please give feedback.


Never Say Goodbye   Bon Jovi

 
 e[---------------------------------------------------------
 B[---------------------------------------------------------
 G[---------------------------------------------------------
 D[-2-------------6-----------7----------7------------------
 A[-0-------------4-----------5----------5------------------
 E[---------------------------------------------------------

 


 


 Intro Richie


 Distortion


 

 
 e[---------------------------------------------------------------
 B[----------12--12b14r12-----------12-12b14--15-14-12-14---------
 G[-9~~~~-9----------------9~~~~-9--------------------------------
 D[---------------------------------------------------------------
 A[---------------------------------------------------------------
 E[---------------------------------------------------------------
 e[---------------------------------------------------------
 B[-15~~-14-12-14-------------------------------------------
 G[---------------14~~~~------------------------------------
 D[---------------------------------------------------------
 A[---------------------------------------------------------
 E[---------------------------------------------------------

 


 


 Verse (x2) I think Jon plays an acoustic guitar for the verse, but I hear a


 lot of keyboard stuff. Well, for you electric players, use a clean tone.


 

 
 e[---------------------------------------------------------
 B[---------------------------------------------------------
 G[-2-----2-----6-----6--------6--7-------------7-----------
 D[-2---2---2---6---6---6---------7-------------7-----------
 A[-0--0-----0--4--4-----4--4-----5-------------5-----------
 E[---------------------------------------------------------

 


 


 Chorus Jon


 

 
 e[---------------------------------------------------------
 B[---------------------------------------------------------
 G[---------------------------------------------------------
 D[-2---------6-----------7----------7----------------------
 A[-0---------4-----------5----------5----------------------
 E[---------------------------------------------------------

 


 


 Richie's chorus is the same as his part of the intro.


 


 After the chorus, Richie play this (Jon plays chorus under him)


 Play this twice


 

 
 e[---------------------------------]-------------------------
 B[---------------------------------]-------------------------
 G[---------------------------------]-------------------------
 D[---------9-9b11r9---------9-9b11-]--12--11--9--7~~~--------
 A[-7~~~~-7----------7~~~~-7--------]-------------------------
 E[---------------------------------]-------------------------

 


 


 Verse


 


 Chorus


 


 GUITAR SOLO I got the solo from the other guy.


 Richie


 Distortion


 

 
 e[-------------------------------------------------------------------
 B[-----------------3---2---------------5b7--5---14b15r14b15----------
 G[---------2---4-----------4b6---2----------------------------14~~~--
 D[-----2-------------------------------------------------------------
 A[-4-----------------------------------------------------------------
 E[-------------------------------------------------------------------
 e[------------------------------------------------7--------
 B[-----------------------------------------5-7-5-----------
 G[-------------2----------------4---6-7-6------------------
 D[-----3---5-----------5---7-------------------------------
 A[-3---------------5---------------------------------------
 E[---------------------------------------------------------
 e[-10--9--7-----------12b14r12---21b23r21b23--17-----------
 B[-------------10------------------------------------------
 G[---------------------------------------------------------
 D[---------------------------------------------------------
 A[---------------------------------------------------------
 E[---------------------------------------------------------
 e[-13h15p13----------15h17p15------------------------------
 B[----------13h15p13----------15h17p15--17b19--------------
 G[---------------------------------------------------------
 D[---------------------------------------------------------
 A[---------------------------------------------------------
 E[---------------------------------------------------------


Important: The song above is NOT stored on the Chordie server. The original song is hosted at www.guitartabs.cc. Chordie works as a search engine and provides on-the-fly formatting. Chordie does not index songs against artists'/composers' will. To remove this song please click here.

This song is displayed as text-only. Transposing and tuning is only available for chordpro-songs.
Rate #1 of 15 versions

Login - add to songbook

SHARE PAGE  




You need to log in to post comments