Guitar Tabs, Chords and Lyrics
Major upgrade!! After one year development the new version of Chordie is now online! Please give feedback.


Walk in the Sky  Bonobo

tuning:
[G]  
[D]  
[A]  
[E]  
Same beautiful melody throughout the entire song
Play this 3x...
( Tab from: http://www.guitartabs.cc/tabs/b/bonobo/walk_in_the_sky_btab_ver_2.html )
 
 -------7---8/5------3/7--2----|
 ----5-------------------------|
 --------5----------1--------5-|
 ------------------------------|

...and there's a little addition every 4th round
 
 -------7---8/5-----7--7/8-7--3-|
 ----5--------------------------|
 --------5----------5-----------|
 -------------------------------|


Important: The song above is NOT stored on the Chordie server. The original song is hosted at www.guitartabs.cc. Chordie works as a search engine and provides on-the-fly formatting. Chordie does not index songs against artists'/composers' will. To remove this song please click here.

Text color:
Chord color:
Chord grids: 
Font size:    
Page size: 

A D E G
Rate #1 of 1 versions

Login - add to songbook

SHARE PAGE  




You need to log in to post comments