Guitar Tabs, Chords and Lyrics
Major upgrade!! After one year development the new version of Chordie is now online! Please give feedback.


Last Call Casualty  Bowling for Soup

This is a pretty basic rythym part for this song...
LAST CALL CASUALTY - Bowling For Soup
"A HANGOVER YOU DON'T DESERVE"
Tuning:Standard (EADGBe)
Intro:
[A] [E]  
 
 e|---------|
 B|---------|
 G|-----9---|
 D|--7--9---|
 A|--7--7---|
 E|--5------|

Verse:
[E] [G#] [A] [G#] [F#] [B]  
 
 e|--------------------|
 B|--------------------|
 G|--------------------|
 D|--2--6--7--6--4--9--|
 A|--2--6--7--6--4--9--|
 E|--0--4--5--4--2--7--|

Chorus:
[A] [E] [C#] [A] [B]  
 
 e|------------------|
 B|------------------|
 G|-----9------------|
 D|--7--9--11--7--9--|
 A|--7--7--11--7--9--|
 E|--5------9--5--7--|

Bridge:
[C#] [B] [A] [(E)] [B]  
 
 e|------------------|
 B|------------------|
 G|-----------(9)----|
 D|--11--9--7-(9)-7--|
 A|--11--9--7-(7)-7--|
 E|---9--7--5-----5--|*ONLY PLAY () 1ST TIME!!

Done and Done. If you don't like my contributions, then find this sumwhere else. or
or make a better one. constructive criticism is always appreciated. dont have a wank about
if you can't do it any better.
Again, listen to the cd for timing, etc...

Important: The song above is NOT stored on the Chordie server. The original song is hosted at www.guitartabs.cc. Chordie works as a search engine and provides on-the-fly formatting. Chordie does not index songs against artists'/composers' will. To remove this song please click here.

Text color:
Chord color:
Chord grids: 
Font size:    
Page size: 

A B C# E F# G#
Rate #1 of 2 versions

Login - add to songbook

SHARE PAGE  



You need to log in to post comments