Guitar Tabs, Chords and Lyrics
Server problems seems to be fixed. Chordie has been experiencing problems with songs disappearing. These issues now seems to be fixed, but still verifying the fix. If you find anything strange, please email admin@chordie.com.


S'S'S'Saturday  Bowling for Soup

http://www.youtube.com/watch?v=cG_2sBOGDK0
I think this is pretty much it it's a really simple song to play
Intro
 
 e|--------------------------------------------------------------------------|
 B|--------------------------------------------------------------------------|
 G|----7-7-7-7-2-2-2-2-0-0-4-4-2-2-2-2-0-0-4-4-2-2---------------------------|
 D|----0-0-0-0-0-0-0-0-0-0-0-0-0-0-0-0-0-0-0-0-0-0-4-4-2-2-2-2-2-2-2-2-------|
 A|----------------------------------------------------0-0-0-0-0-0-0-0-------|
 E|--------------------------------------------------------------------------|
 e|--------------------------------------------------------------------------|
 B|--------------------------------------------------------------------------|
 G|----7-7-7-7-2-2-2-2-0-0-4-4-2-2-2-2-0-0-4-4-2-2---------------------------|
 D|----0-0-0-0-0-0-0-0-0-0-0-0-0-0-0-0-0-0-0-0-0-0-4-4-2-2-2-2-2-2-2-2-------|
 A|----------------------------------------------------0-0-0-0-0-0-0-0-------|
 E|--------------------------------------------------------------------------|
 e|--------------------------------------------------------------------------|
 B|--------------------------------------------------------------------------|
 G|----7-7-7-7-2-2-2-2-0-0-4-4-2-2-2-2-0-0-4-4-2-2---------------------------|
 D|----0-0-0-0-0-0-0-0-0-0-0-0-0-0-0-0-0-0-0-0-0-0-4-4-2-2-2-2-2-2-2-2-------|
 A|----------------------------------------------------0-0-0-0-0-0-0-0-------|
 E|--------------------------------------------------------------------------|

Saturday Night
 
 e|--------------------------------------------------------------------------|
 B|--------------------------------------------------------------------------|
 G|----7-7-7-7-2-2-2-2-0-0-4-4-2-2-2-2-0-0-4-4-2-2---------------------------|
 D|----0-0-0-0-0-0-0-0-0-0-0-0-0-0-0-0-0-0-0-0-0-0-4-4-2-2-2-2-2-2-2-2-------|
 A|----------------------------------------------------0-0-0-0-0-0-0-0-------|
 E|--------------------------------------------------------------------------|

Saturday Night
[D]Punch the clock
Right on time
Think I'm gonna lose my mind
5 o'clock seems like it's a [A]lifetime [G]away
[D]Hate my boss
Hate this place
Wanna shove it in his face
He doesn't know his wife is [A]texting me [G]every [Bm]day
[E]But I see
[G]The weekend right in front of [A]me
[D]I wish every night was [A]Saturday [G]night
[D]I wish every night was [A]Saturday [G]night
[Bm]Here's to hoping [A]Monday never [G]comes
S-S-S-Saturday Night
 
 e|--------------------------------------------------------------------------|
 B|--------------------------------------------------------------------------|
 G|----7-7-7-7-2-2-2-2-0-0-4-4-2-2-2-2-0-0-4-4-2-2---------------------------|
 D|----0-0-0-0-0-0-0-0-0-0-0-0-0-0-0-0-0-0-0-0-0-0-4-4-2-2-2-2-2-2-2-2-------|
 A|----------------------------------------------------0-0-0-0-0-0-0-0-------|
 E|--------------------------------------------------------------------------|

Saturday Night
[D]Half past six
Hit the town
Taking shots and buying rounds
Ozzy's on the jukebox riding [A]Crazy [G]Trains
[D]Love my friends
Love this bar
The bouncer looks like Ringo Starr
So many girls that my neck [A]hurts, [G]have I gone [Bm]insane?
[E]And I see
[G]The weekend right in front of [A]me
[D]I wish every night was [A]Saturday [G]night
[D]I wish every night was [A]Saturday [G]night
[Bm]Here's to hoping [A]Monday never [G]comes
S-S-S-Saturday Night
[D]I wish every night was [A]Saturday [G]night
[D]I wish every night was [A]Saturday [G]night
[Bm]Here's to hoping [A]Monday never [G]comes
S-S-S-Saturday [E]Night
This taxi [A]cab
[E]It really ain't so [A]bad
[E]As I lean out the [A]window I [Cm]say
S-S-S-Saturday
[D]I wish every night was [A]Saturday [G]night
[D]I wish every night was [A]Saturday [G]night
[D]I wish every night was [A]Saturday [G]night
[D]I wish every night was [A]Saturday [G]night
[D]I wish every night was [A]Saturday [G]night
[D]I wish every night was [A]Saturday [G]night
[Bm]Here's to hoping [A]Monday never [G]comes
S-S-S-Saturday Night
[D]I wish every night was [A]Saturday [G]night
[D]I wish every night was [A]Saturday [G]night
[Bm]Here's to hoping [A]Monday never [G]comes
S-S-S-Saturday Night
 
 e|--------------------------------------------------------------------------|
 B|--------------------------------------------------------------------------|
 G|----7-7-7-7-2-2-2-2-0-0-4-4-2-2-2-2-0-0-4-4-2-2---------------------------|
 D|----0-0-0-0-0-0-0-0-0-0-0-0-0-0-0-0-0-0-0-0-0-0-4-4-2-2-2-2-2-2-2-2-------|
 A|----------------------------------------------------0-0-0-0-0-0-0-0-------|
 E|--------------------------------------------------------------------------|

Saturday Night
S-S-S-Saturday Night
 
 e|--------------------------------------------------------------------------|
 B|--------------------------------------------------------------------------|
 G|----7-7-7-7-2-2-2-2-0-0-4-4-2-2-2-2-0-0-4-4-2-2---------------------------|
 D|----0-0-0-0-0-0-0-0-0-0-0-0-0-0-0-0-0-0-0-0-0-0-4-4-2-2-2-2-2-2-2-2-------|
 A|----------------------------------------------------0-0-0-0-0-0-0-0-------|
 E|--------------------------------------------------------------------------|

Saturday Night

Important: The song above is NOT stored on the Chordie server. The original song is hosted at www.guitartabs.cc. Chordie works as a search engine and provides on-the-fly formatting. Chordie does not index songs against artists'/composers' will. To remove this song please click here.

Text color:
Chord color:
Chord grids: 
Font size:    
Page size: 

A Bm Cm D E G
Rate #1 of 1 versions

Jango Player

Login - add to songbook

SHARE PAGE  




You need to log in to post comments